Song name
# A B C D E F G H I J K L M N O P Q R S T U V W X Y Z

Eyes Set To Kill - Beauty Through Broken Glass chords

Highlighted       Show chord diagrams
This is my first time so the tab is a bit hard to read. This is how I play it and
it seems right :)

VERSE 1
Bm                     D
Glass hailed from the sky tonight
A                   G
I couldn't hide to save my life.
Bm                     D
Standing drenched from open wounds.
A                  G
You took my hand, and pulled me through.


CHORUS
G          A    Bm         D
I want to give you everything
A                    G
Ill give you my all because you gave me
G            A    Bm
You gave me your lips
D         A
a gentle kiss
G
the medicine to cure my pain

SOLO
  Bm
e|---------2----------|
B|-------3-3--3/2-2\3-|
G|-----4--------------|
D|---4----------------|
A|--------------------|
E|--------------------|
  D
e|---------2--------------|
B|-------3-3--3-------3---|
G|-----2--------2---2---2-|
D|---0------------0-------|
A|------------------------|
E|------------------------|
  A
e|---------0--------------|
B|-------2-2--2-------2---|
G|-----2--------2---2---2-|
D|---2------------2-------|
A|------------------------|
E|------------------------|
  G
e|------------3-|
B|---------0--0-|
G|---------0--0-|
D|-------0----0-|
A|-----2------2-|
E|---3--------3-|

VERSE 2
Bm            D
listen to all this glass shatter.
A                     G
i peirced my ears and made them bleed.
Bm              D
Now sounds so beautiful
A
Cause you're beatiful.
G
You're beautiful.

CHORUS X2
G          A    Bm         D
I want to give you everything
A                    G
Ill give you my all because you gave me
G            A    Bm
You gave me your lips
D         A
a gentle kiss
G
the medicine to cure my pain

OUTRO
  Bm
e|---------2----------|
B|-------3-3--3/2-2\3-|
G|-----4--------------|
D|---4----------------|
A|--------------------|
E|--------------------|
  D
e|---------2--------------|
B|-------3-3--3-------3---|
G|-----2--------2---2---2-|
D|---0------------0-------|
A|------------------------|
E|------------------------|
  A
e|---------0--------------|
B|-------2-2--2-------2---|
G|-----2--------2---2---2-|
D|---2------------2-------|
A|------------------------|
E|------------------------|
  G
e|------------------------|
B|---------0--0-------0---|
G|---------0----0---0---0-|
D|-------0--------2-------|
A|-----2------------------|
E|---3--------------------|
Tap to rate this tab
# A B C D E F G H I J K L M N O P Q R S T U V W X Y Z