Song name
# A B C D E F G H I J K L M N O P Q R S T U V W X Y Z

Eyes Set To Kill - Darling tab

"Darling" by Eyes Set To Kill
Parts taken from other tabs otherwise I randomly put it in d:
It's a pretty simple song to play aha..
Well, enjoy :3

Guitar 1:
e|---------------------------------------------------------------------|
B|---------------------------------------------------------------------|
G|---------------------------------------------------------------------|
D|--0-0--000000-0-0-0-0-0-0--7-7--777777-8-7-5-7-5-3-------------------|(4x)
A|--0-0--000000-0-0-0-0-0-0--7-7--777777-8-7-5-7-5-3-------------------|
D|--0-0--000000-0-0-0-0-0-0--7-7--777777-8-7-5-7-5-3-------------------|
    . .  ...... . . . . . .  . .  ...... . . . . . .

e|---------------------------------------------------------------------|
B|---------------------------------------------------------------------|
G|-------10-10-10-10--------9999-------12121212-------9999-------------|
D|--888---x--x--x--x----888-xxxx--000---x-x-x-x--000--xxxx-------------|(4x)
A|--888---8--8--8--8----888-7777--000--10101010--000--7777-------------|
D|--888-----------------888-------000------------000-------------------|
    ...                 ...       ...            ...

e|---------------------------------------------------------------------|
B|---------------------------------------------------------------------| 
G|-------10-10-10-10--------9999-------12121212------------------------|
D|--888---x--x--x--x----888-xxxx--000---x-x-x-x--8-7-5-7-5-3-----------|(x4)
A|--888---8--8--8--8----888-7777--000--10101010--8-7-5-7-5-3-----------|
D|--888-----------------888-------000------------8-7-5-7-5-3-----------|
    ...                 ...       ...            . . . . . .

e|---------------------------------------------------------------------|
B|---------------------------------------------------------------------|
G|---------------------------------------------------------------------|
D|--000000000-333322220000-----------000000000-3333222000-5b-----------|
A|--000000000--------------11110000--000000000-------------------------|
D|--000000000------------------------000000000-------------------------|
    .........                        .........

e|---------------------------------------------------------------------|
B|---------------------------------------------------------------------|
G|---------------------------------------------------------------------|
D|--000000000-333322220000-----------000000000-000-00-0-0-0--0-3*------|
A|--000000000--------------11110000--000000000-000-00-0-0-0--0---------|
D|--000000000------------------------000000000-000-00-0-0-0--0---------|
    .........                        ......... ... .. . . .  .

e|---------------------------------------------------------------------|
B|---------------------------------------------------------------------| 
G|---------------------------------------------------------------------|
D|--000000000-333322220000-----------000000000-3333222000-5b-----------|
A|--000000000--------------11110000--000000000-------------------------|
D|--000000000------------------------000000000-------------------------|
    .........                        .........

e|---------------------------------------------------------------------|
B|---------------------------------------------------------------------|
G|------------------------------------------------------6-6-6----------|
D|--000000000-333322220000-----------000000000-000-00-0-0-0-0----------|
A|--000000000--------------11110000--000000000-000-00-0-4-4-4----------|
D|--000000000------------------------000000000-000-00-0----------------|
    .........                        ......... ... .. .

e|---------------------------------------------------------------------|
B|---------------------------------------------------------------------|
G|----------------------------------------------------------6----------|
D|--000000000-000-000-0-0h2p0-------000000000-000-000-0-0-0-0----------|
A|--000000000-000-000-0-------2h3---000000000-000-000-0-0-0-4----------|
D|--000000000-000-000-0-------------000000000-000-000-0-0-0------------|
    ......... ... ... .             ......... ... ... . . .

e|---------------------------------------------------------------------|
B|---------------------------------------------------------------------|
G|------------------------------------------------------6-6-6----------|
D|--000000000-000-000-0-0h2p0-------000000000-000-000-0-0-0-0----------|
A|--000000000-000-000-0-------2h3---000000000-000-000-0-4-4-4----------|
D|--000000000-000-000-0-------------000000000-000-000-0----------------|
    ......... ... ... .             ......... ... ... .

e|---------------------------------------------------------------------|
B|---------------------------------------------------------------------|
G|----------------------------------------------------------6----------|
D|--000000000-000-000-0-0h2p0-------000000000-000-000-0-0-0-0----------|
A|--000000000-000-000-0-------2h3---000000000-000-000-0-0-0-4----------|
D|--000000000-000-000-0-------------000000000-000-000-0-0-0------------|
    ......... ... ... .             ......... ... ... . . .

e|---------------------------------------------------------------------|
B|---------------------------------------------------------------------|
G|------------------------------------------------------6-6-6----------|
D|--000000000-000-000-0-0h2p0-------000000000-000-000-0-0-0-0----------|
A|--000000000-000-000-0-------2h3---000000000-000-000-0-4-4-4----------|
D|--000000000-000-000-0-------------000000000-000-000-0----------------|
    ......... ... ... .             ......... ... ... .

e|---------------------------------------------------------------------|
B|---------------------------------------------------------------------|
G|------10~----------------------------10------------------------------|
D|--8~--10~--2h3-0----------------------8-(16x)------------------------|(4x)
A|--8~---8~----------5--7--8--10--13-12-8------------------------------|
D|--8~---8~-----------00-00-00--00--0---8------------------------------|
                      .. .. ..  ..  .

e|---------------------------------------------------------------------|
B|---------------------------------------------------------------------|
G|--------14141414-------10101010-------12121212-------9999------------|
D|--0000---x-x-x-x--8888--x-x-x-x--0000--x-x-x-x--8888-xxxx------------|
A|--0000--12121212--8888--8-8-8-8--0000-10101010--8888-7777------------|
D|--0000------------8888-----------0000-----------8888-----------------|
    ....            ....           ....           ....

e|---------------------------------------------------------------------|
B|---------------------------------------------------------------------|
G|--------14141414-------10101010-------12-----------------------------|
D|--0000---x-x-x-x--8888--x-x-x-x--0000--x-333322220000----------------|
A|--0000--12121212--8888--8-8-8-8--0000-10--------------11110000-------|
D|--0000------------8888-----------0000--------------------------------|
    ....            ....           ....

e|---------------------------------------------------------------------|
B|---------------------------------------------------------------------|
G|--------14141414-------10101010-------12121212-------9999------------|
D|--0000---x-x-x-x--8888--x-x-x-x--0000--x-x-x-x--8888-xxxx------------|
A|--0000--12121212--8888--8-8-8-8--0000-10101010--8888-7777------------|
D|--0000------------8888-----------0000-----------8888-----------------|
    ....            ....           ....           ....

e|---------------------------------------------------------------------|
B|---------------------------------------------------------------------|
G|--------14141414-------10101010-------12-----------------------------|
D|--0000---x-x-x-x--8888--x-x-x-x--0000--x-333322220000----------------|
A|--0000--12121212--8888--8-8-8-8--0000-10--------------8\-------------|
D|--0000------------8888-----------0000--------------------------------|
    ....            ....           ....

e|---------------------------------------------------------------------|
B|---------------------------------------------------------------------|
G|---------------------------------------------------------------------|
D|--3-3-3-0-0-0-2-2-2-0-0-0-3-3-3-0-0-0-2-2-2-232-2--------------------|(2x)
A|---1-1-1-1-1-1-1-1-1-1-1-1-0-0-0-0-0-0-3-3-3---3-3-------------------|
D|---------------------------------------------------------------------|

e|---------------------------------------------------------------------|
B|-----------------------11--11-11--11---------------------------------|
G|--7-7-7-9-9-9-10-10-10---10-----10-----------------------------------|
D|---7-7-7-7-7-7--7--7--7----------------------------------------------|(8x)
A|---------------------------------------------------------------------|
D|---------------------------------------------------------------------|

[This Riff 2x]
e|---------------------------------------------------------------------|
B|---------------------------------------------------------------------|
G|--14141414-10101010-12121212-9999------------------------------------|
D|---x-x-x-x--x-x-x-x--x-x-x-x-xxxx------------------------------------|
A|--12121212--8-8-8-8-10101010-7777------------------------------------|
D|---------------------------------------------------------------------|

e|---------------------------------------------------------------------|
B|---------------------------------------------------------------------|
G|--14141414-10101010-12121212121212121212121212121212-----------------|
D|---x-x-x-x--x-x-x-x--x-x-x-x-x-x-x-x-x-x-x-x-x-x-x-x-----------------|
A|--12121212--8-8-8-8-10101010101010101010101010101010-----------------|
D|---------------------------------------------------------------------|

[This Riff 2x]
e|---------------------------------------------------------------------|
B|---------------------------------------------------------------------|
G|--1414141414\101010101010/121212121212\999999------------------------|
D|---x-x-x-x-x\-x-x-x-x-x-x/-x-x-x-x-x-x\xxxxxx------------------------|
A|--1212121212\-8-8-8-8-8-8/101010101010\777777------------------------|
D|---------------------------------------------------------------------|

e|---------------------------------------------------------------------|
B|---------------------------------------------------------------------|
G|--1414141414\101010101010/12121212121212121212121212121212-----------|
D|---x-x-x-x-x\-x-x-x-x-x-x/-x-x-x-x-x-x-x-x-x-x-x-x-x-x-x-x-----------|
A|--1212121212\-8-8-8-8-8-8/10101010101010101010101010101010-----------|
D|---------------------------------------------------------------------|

4th time end with this:
e|---------------------------------------------------------------------|
B|---------------------------------------------------------------------|
G|---------------------------------------------------------------------|
D|--8~-----------------------------------------------------------------|
A|--8~-----------------------------------------------------------------|
D|--8~-----------------------------------------------------------------|


Guitar 2:
e|---------------------------------------------------------------------|
B|---------------------------------------------------------------------|
G|---------------------------------------------------------------------|
D|--0-0--000000-0-0-0-0-0-0--7-7--777777-8-7-5-7-5-3-------------------|(2x)
A|--0-0--000000-0-0-0-0-0-0--7-7--777777-8-7-5-7-5-3-------------------|
D|--0-0--000000-0-0-0-0-0-0--7-7--777777-8-7-5-7-5-3-------------------|
    . .  ...... . . . . . .  . .  ...... . . . . . .

e|--3h5-3-0h1p0-----3h5------------------------------------------------|
B|--------------1h3-----6s5--------------------------------------------|
G|---------------------------------------------------------------------|
D|---------------------------------------------------------------------|(4x)
A|---------------------------------------------------------------------|
D|---------------------------------------------------------------------|

(Play when she sings "Breath in slowly now")
e|--3h5-3-0h1p0-----3h5------------------------------------------------|
B|--------------1h3-----6s5--------------------------------------------|
G|---------------------------------------------------------------------|
D|---------------------------------------------------------------------|
A|---------------------------------------------------------------------|
D|---------------------------------------------------------------------|

(Played with Guitar 1)
e|---------------------------------------------------------------------|
B|---------------------------------------------------------------------|
G|-------10-10-10-10--------9999-------12121212-------9999-------------|
D|--888---x--x--x--x----888-xxxx--000---x-x-x-x--000--xxxx-------------|(2x)
A|--888---8--8--8--8----888-7777--000--10101010--000--7777-------------|
D|--888-----------------888-------000------------000-------------------|
    ...                 ...       ...            ...

e|---------------------------------------------------------------------|
B|---------------------------------------------------------------------|
G|---------------------------------------------------------------------|
D|--000000000-1010101099997777-----------000000000-1010101099997777-12b|
A|--000000000------------------88887777--000000000---------------------|
D|--000000000----------------------------000000000---------------------|
    .........                            .........

e|---------------------------------------------------------------------|
B|---------------------------------------------------------------------|
G|---------------------------------------------------------------------|
D|--000000000-1010101099997777-----------000000000-000-00-0-0-0--0-12*-|
A|--000000000------------------88887777--000000000-000-00-0-0-0--0-----|
D|--000000000----------------------------000000000-000-00-0-0-0--0-----|
    .........                            ......... ... .. . . .  .

e|---------------------------------------------------------------------|
B|---------------------------------------------------------------------|
G|---------------------------------------------------------------------|
D|--000000000-1010101099997777-----------000000000-1010101099997777-12b|
A|--000000000------------------88887777--000000000---------------------|
D|--000000000----------------------------000000000---------------------|
    .........                            .........

e|---------------------------------------------------------------------|
B|---------------------------------------------------------------------|
G|---------------------------------------------------------------------|
D|--000000000-333322220000-----------000000000-000-00-0----------------|
A|--000000000--------------11110000--000000000-000-00-0-11-11-11------|
D|--000000000------------------------000000000-000-00-0----------------|
    .........                        ......... ... .. .

e|---------------------------------------------------------------------|
B|---------------------------------------------------------------------|
G|---------------------------------------------------------------------|
D|--000000000-000-000-0-9h10p9-----------000000000-000-000-0-0-0-------|
A|--000000000-000-000-0--------7h8-------000000000-000-000-0-0-0-11~---|
D|--000000000-000-000-0------------------000000000-000-000-0-0-0-------|
    ......... ... ... .                  ......... ... ... . . .

e|---------------------------------------------------------------------|
B|---------------------------------------------------------------------|
G|---------------------------------------------------------------------|
D|--000000000-000-000-0-9h10p9-----------000000000-000-00-0------------|
A|--000000000-000-000-0--------7h8-------000000000-000-00-0-11-11-11---|
D|--000000000-000-000-0------------------000000000-000-00-0------------|
    ......... ... ... .                  ......... ... .. .

e|---------------------------------------------------------------------|
B|---------------------------------------------------------------------|
G|---------------------------------------------------------------------|
D|--000000000-000-000-0-9h10p8-----------000000000-000-000-0-0-0-------|
A|--000000000-000-000-0--------7h8-------000000000-000-000-0-0-0-11~---|
D|--000000000-000-000-0------------------000000000-000-000-0-0-0-------|
    ......... ... ... .                  ......... ... ... . . .

e|---------------------------------------------------------------------|
B|---------------------------------------------------------------------|
G|---------------------------------------------------------------------|
D|--000000000-000-000-0-9h10p9-----------000000000-000-00-0------------|
A|--000000000-000-000-0--------7h8-------000000000-000-00-0-11-11-11---|
D|--000000000-000-000-0------------------000000000-000-00-0------------|
    ......... ... ... .                  ......... ... .. .

e|---------------------------------------------------------------------|
B|---------------------------------------------------------------------|
G|------10~------------------------------------------------------------|
D|--8~--10~------------------------------------------------------------|
A|--8~---8~------------------------------------------------------------|
D|--8~---8~------------------------------------------------------------|

e|--10-10-12-10-13-10-10-15-10-13-10-10-10h12p10-12--------------------|
B|---------------------------------------------------------------------|
G|---------------------------------------------------------------------|
D|---------------------------------------------------------------------|
A|---------------------------------------------------------------------|
D|---------------------------------------------------------------------|

e|--10-10-12-10-13-10-10-15-10-13-10-10-10h12p10-13--------------------|
B|---------------------------------------------------------------------|
G|---------------------------------------------------------------------|
D|---------------------------------------------------------------------|
A|---------------------------------------------------------------------|
D|---------------------------------------------------------------------|

e|--10-10-12-10-13-10-10-15-10-13-10-10-10h12p10-12--------------------|
B|---------------------------------------------------------------------|
G|---------------------------------------------------------------------|
D|---------------------------------------------------------------------|
A|---------------------------------------------------------------------|
D|---------------------------------------------------------------------|

e|--10-10-12-10-13-10-10-15-10-13-10-10-10h12p10-13--------------------|
B|---------------------------------------------------------------------|
G|---------------------------------------------------------------------|
D|---------------------------------------------------------------------|
A|---------------------------------------------------------------------|
D|---------------------------------------------------------------------|

e|--10-10-12-10-13-10-10-15-10-13-10-10-10h12p10-12--------------------|
B|---------------------------------------------------------------------|
G|---------------------------------------------------------------------|
D|---------------------------------------------------------------------|
A|---------------------------------------------------------------------|
D|---------------------------------------------------------------------|

e|--10-10-12-10-13-10-10-15-10-13-10-10-10h12p10-15--------------------|
B|---------------------------------------------------------------------|
G|---------------------------------------------------------------------|
D|---------------------------------------------------------------------|
A|---------------------------------------------------------------------|
D|---------------------------------------------------------------------|

e|---------------------------------------------------------------------|
B|---------------------------------------------------------------------|
G|--------14141414-------10101010-------12121212-------9999------------|
D|--0000---x-x-x-x--8888--x-x-x-x--0000--x-x-x-x--8888-xxxx------------|
A|--0000--12121212--8888--8-8-8-8--0000-10101010--8888-7777------------|
D|--0000------------8888-----------0000-----------8888-----------------|
    ....            ....           ....           ....

e|---------------------------------------------------------------------|
B|---------------------------------------------------------------------|
G|--------14141414-------10101010-------12-----------------------------|
D|--0000---x-x-x-x--8888--x-x-x-x--0000--x-1010101099997777------------|
A|--0000--12121212--8888--8-8-8-8--0000-10------------------88887777---|
D|--0000------------8888-----------0000--------------------------------|
    ....            ....           ....

e|---------------------------------------------------------------------|
B|---------------------------------------------------------------------|
G|--------14141414-------10101010-------12121212-------9999------------|
D|--0000---x-x-x-x--8888--x-x-x-x--0000--x-x-x-x--8888-xxxx------------|
A|--0000--12121212--8888--8-8-8-8--0000-10101010--8888-7777------------|
D|--0000------------8888-----------0000-----------8888-----------------|
    ....            ....           ....           ....

e|---------------------------------------------------------------------|
B|---------------------------------------------------------------------|
G|--------14141414-------10101010-------12-----------------------------|
D|--0000---x-x-x-x--8888--x-x-x-x--0000--x-1010101099997777-----0~Cut--|
A|--0000--12121212--8888--8-8-8-8--0000-10------------------8\--0~Ring-|
D|--0000------------8888-----------0000-------------------------0~-----|
    ....            ....           ....

e|---------------------------------------------------------------------|
B|---------------------------------------------------------------------|
G|--------------777777555555101010101010999999121212121212121212121212-|
D|-888888888888--------------------------------------------------------|
A|---------------------------------------------------------------------|
D|---------------------------------------------------------------------|
   ............ ......................................................

[This Riff 2x]
e|---------------------------------------------------------------------|
B|---------------------------------------------------------------------|
G|---------------------------------------------------------------------|
D|--12121212--8888-10101010-7777---------------------------------------|
A|--12121212--8888-10101010-7777---------------------------------------|
D|--12121212--8888-10101010-7777---------------------------------------|

e|---------------------------------------------------------------------|
B|---------------------------------------------------------------------|
G|---------------------------------------------------------------------|
D|--12121212--8888-10101010101010101010101010101010--------------------|
A|--12121212--8888-10101010101010101010101010101010--------------------|
D|--12121212--8888-10101010101010101010101010101010--------------------|

[This Riff 2x]
e|---------------------------------------------------------------------|
B|---------------------------------------------------------------------|
G|---------------------------------------------------------------------|
D|--121212121212-888888-101010101010-777777----------------------------|
A|--121212121212-888888-101010101010-777777----------------------------|
D|--121212121212-888888-101010101010-777777----------------------------|

e|---------------------------------------------------------------------|
B|---------------------------------------------------------------------|
G|---------------------------------------------------------------------|
D|--121212121212-888888-10101010101010101010101010101010---------------|
A|--121212121212-888888-10101010101010101010101010101010---------------|
D|--121212121212-888888-10101010101010101010101010101010---------------|

e|---------------------------------------------------------------------|
B|---------------------------------------------------------------------|
G|--10-----------------------------------------------------------------|
D|--10-----------------------------------------------------------------|
A|---8-----------------------------------------------------------------|
D|---8-----------------------------------------------------------------|


Coupla parts might be wrong D: mostly cuz i just tried to tab it by ear ._.
Tap to rate this tab
# A B C D E F G H I J K L M N O P Q R S T U V W X Y Z