Song name
# A B C D E F G H I J K L M N O P Q R S T U V W X Y Z

Eyes Set To Kill - Liar In The Glass tab

This is lead and rhythm guitar!

First Guitar:

1st verse (4x) DISTORTED

e|-------------------------------------------|-----------------------------|
B|-------------------------------------------|-----------------------------|
G|-------------------------------------------|-----------------------------|
D|-0-----------------------------------------|-8-8-8-8-8-8-8--7------7-----|
A|-0-----10----7-----8-----5-----7-----3/2/0-|-8-8-8-8-8-8-8--7--7/8--8/7--|
D|-0--0-----0-----0-----0-----0-----0--------|-8-8-8-8-8-8-8--7-8----------|
                                                   . . . . . 
1st chorus (x6) CLEAN
                                                   
e|-1---0---3---1---0-----|-1---0---|-3---3---3---------------------------|
B|--3---3---3---3---3--3-|--3---3--|--2---2---2--2-----------------------|
G|---2---2---2---2---2---|---3---3-|---2---2---2-------------------------|
D|-----------------------|---------|-------------------------------------|
A|-----------------------|---------|-------------------------------------|
D|-----------------------|---------|-------------------------------------|

2nd verse (2x) DISTORTED

e|-----------------------|-----------------------|-----------------------|
B|-----------------------|-----------------------|-----------------------|
G|-----------------------|-----------------------|-----------------------|
D|-8--10-----8---------7-|-0--10-----8---------7-|-7--10----------7/8/7--|
A|-8-----7/8---10/8-7/8--|-0-----7/8---10/8-7/8--|-7-----7/8-8-10/8----8-|
D|-8-8--8---8-8----8-----|-0-0--0---0-0----0-----|-7-7--7---7-7----------|
  {__________2x__________}

2nd Verse (continue) (2x) DISTORTED
_each gets eight counts

e|---------|-----|-----------------------|
B|---------|-----|-----------------------|
G|---------|-----|-----------------------|
D|-8-8-8-8-|-0-0-|-7-7-------------------|
A|-8-8-8-8-|-0-0-|-7-7-------------------|
D|-8-8-8-8-|-0-0-|-7-7-------------------|

Transition into 2rd chorus:

e|-------------------|
B|-------------------|
G|-------------------|
D|---7----7-bend-----|
A|--8----8-----------|
D|-8----8------------|

2nd chorus (x4) DISTORTED

e|----------------------------------------------|
B|----------------------------------------------|
G|----------------------------------------------|
D|-000-000-000-10/8/7--------------7*-----------|
A|-000-000-000-------7----------7/8--8/7--------|
D|-000-000-000---------888-777-8----------------|

3rd verse (x2) DISTORED

e|-------------------------------------|------------------------------|
B|-13-11-10------13-11-10--------------|------------------------8-10--|
G|---------10-9----------10-9----------|------------------7-9-10------|
D|-------------10------------10-8-7----|-----7-8-7-----7-8------------|
A|---------------------------------8-7-|--7-8-------7-8---------------|
D|-------------------------------------|-0---------0------------------|
  {_________________x2________________}


e|---------------------------------|
B|---------------------------------|
G|---------------------------------|
D|-----7-8-7-----7-8-7-------------|
A|--7-8-------7-8-----8-7-5--------|
D|-7---------7---------------------|

3rd verse (continued)


e|---------------|---------------------|
B|---------------|---------------------|
G|-10-7--12-10-9-|---------------------|
D|-x--x--x--x--x-|-10-15-14-12--10-9---|
A|-8--5--10-8--7-|-x--x--x--x---x--x---|
D|---------------|-8--13-12-10--8--7---|

theres a solo here but i dont know it,
so im just going straight to the break down


e|--------------------------------|
B|-10-----------------------------|
G|-10----10-----------------------|
D|-8-----8------10-----8----------|
A|-8-----8------8------8----------|
D|-8-----8------8------8----------|




e|---------------------------------|
B|---------------------------------|
G|---------------------------------|
D|-00--000-000~--0-000-000~--------|
A|-00--000-000~--0-000-000~--------|
D|-00--000-000~--0-000-000~--------|

then you can figure ut where these go cause im tired from making this whole tab haha

e|-------13--12--------------|
B|---11----11--11------------|
G|-14--14--------------------|
D|---------------------------|
A|---------------------------|
D|---------------------------|

e|----------------------------------|
B|----------------------------------|
G|----------------------------------|
D|----------------------------------|
A|----------------------------------|
D|-7/8/7-0-7-5/7/5-4----------------|


e|---------------------------------|
B|---------------------------------|
G|-9-xx-10-x-7/9/7-6---------------|
D|-x-xx-x--x-x/x/x-x---------------|
A|-7-xx-8--x-5/7/5-4---------------|
D|---------------------------------|


Second Guitar:

1st verse (4x) DISTORTED

e|-------------------------------------------|-----------------------------|
B|-------------------------------------------|-----------------------------|
G|-------------------------------------------|-----------------------------|
D|-0-----------------------------------------|-8-8-8-8-8-8-8--7------7-----|
A|-0-----5-----7-----8-----10-----12---13-12-|-8-8-8-8-8-8-8--7--7/8--8/7--|
D|-0--0-----0-----0-----0-----0-----0--------|-8-8-8-8-8-8-8--7-8----------|
                                                   . . . . . 
transition into 1st chorus
e|--------------------------|
B|--------------------------|
G|--------------------------|
D|-000-000-/-000-0----------|
A|-000-000-/-000-0----------|
D|-000-000-/-000-0----------|

1st chorus (x2) CLEAN
                                                   
e|-5---0---6---0---8-----|-6---6---|-5---5----------------------------|
B|--6---6---6---6---6--6-|--6---6--|--5---5---------------------------|
G|---7---7---7---7---7---|---7---7-|---6---6--------------------------|
D|-----------------------|---------|----------------------------------|
A|-----------------------|---------|----------------------------------|
D|-----------------------|---------|----------------------------------|

1st chorus (continue) (X2)
e|----------------------------|-------------------------------------|
B|----------------------------|-------------------------------------|
G|----------------------------|-------------------------------------|
D|-000-000-000--888-88-777-77-|-000-000-000--888-88-7-----7---------|
A|-000-000-000--888-88-777-77-|-000-000-000--888-88-7--7/8-8/7------|
D|-000-000-000--888-88-777-77-|-000-000-000--888-88-7-8-------------|

2nd verse (2x) DISTORTED

e|--------------------------
B|--------------------------
G|--------------------------
D|-8~-8~-0~-7~------------------
A|-8~-8~-0~-7~------------------
D|-8~-8~-0~-7~------------------

2nd Verse (continue) (2x) DISTORTED
_add rhythm


e|----------------|-----------------------|
B|----------------|-----------------------|
G|-12-10-9-10-9-6-|-12-10-9-10-15-14------|
D|-x--x--x-x--x-x-|-x--x--x-x--x--x-------|
A|-10-8--7-8--7-4-|-10-8--7-8--13-12------|
D|----------------|-----------------------|

Transition into 2rd chorus:

e|-------------------|
B|-------------------|
G|-------------------|
D|---7----7-bend-----|
A|--8----8-----------|
D|-8----8------------|

2nd chorus (x4) DISTORTED

e|----------------------------------------------|
B|----------------------------------------------|
G|----------------------------------------------|
D|-000-000-000-10/8/7--------------7*-----------|
A|-000-000-000-------7----------7/8--8/7--------|
D|-000-000-000---------888-777-8----------------|

3rd verse (x2) DISTORED

e|----------------------------|-------------------------------|
B|-----------------------8-10-|-------------------------------|
G|------------------7-9-10----|-------------------------------|
D|-----7-8-7-----7-8----------|-----7-8-7-----7-8-7-----------|
A|--7-8-------7-8-------------|--7-8-------7-8------8-7-5-----|
D|-8---------8----------------|-0---------0-------------------|
  {_____________x2____________)

e|---------------------------------|
B|---------------------------------|
G|---------------------------------|
D|-----7-8-7-----7-8-7-------------|
A|--7-8-------7-8-----8-7-5--------|
D|-7---------7---------------------|

3rd verse (x2) (continued)
_each gets eight counts


e|----------------------------------|
B|----------------------------------|
G|----------------------------------|
D|-8-8-0-7--------------------------|
A|-8-8-0-7--------------------------|
D|-8-8-0-7--------------------------|

theres a solo here but i dont know it,
breakdowns above

Tap to rate this tab
 
# A B C D E F G H I J K L M N O P Q R S T U V W X Y Z