Song name
# A B C D E F G H I J K L M N O P Q R S T U V W X Y Z

Eyes Set To Kill - Reach Acoustic tab

This is my 1st tab so hopefully its accurate.
I tried to learn this song and was no tab so i watched:
http://www.youtube.com/watch?v=nf6goK5YWmU and tabbed it out.
Timings will apply to that video and only to help get a idea when to play. Tuning is in 
standard, hope it helps ^^

-----------------------------------------------------------------|
-----------------------------------------------------------------|
----------7------------------------------------------------------|
9----5----7----7----8--------------------------------------------|   X2
9----5----5----7----8--------------------------------------------|
9----5---------7----8------------------------------  0.00 - 0.24-|

3----2----3----2------------------------------------------------|
0----3----0----3------------------------------------------------|
0----4----0----4------------------------------------------------|
0----4----0----4------------------------------------------------|
2---------2-----------------------------------------------------|
3---------3---------------------------------------- 0.25 - 0.45-|

-----X---------X---------X-------------------------------------|
-----X---------X---------X-------------------------------------|
-----X---------X---------X-------------------------------------|
5----X----5----X----5----X----5----7----9----------------------| X2
5----X----5----X----5----X----5----7----9----------------------|
5----X----5----X----5----X----5----7----9---------- 0.46- 1.02-|

----------------------------------------------------------------|
----------------------------------------------------------------|
----------7-----------------------------------------------------|
9----5----7----7----8-------------------------------------------| X2
9----5----5----7----8-------------------------------------------|
9----5---------7----8------------------------------ 1.03 - 1.24-|

-----X---------X---------X--------------------------------------|
-----X---------X---------X--------------------------------------|
-----X---------X---------X--------------------------------------|
5----X----5----X----5----X----5---------------------------------| X2
5----X----5----X----5----X----5---------------------------------| (no 'X's on 2nd time)
5----X----5----X----5----X----5-------------------- 1.25 - 1.28-|

-----X---------X---------X--------------------------------------|
-----X---------X---------X--------------------------------------|
-----X---------X---------X--------------------------------------|
9----X----9----X----9----X----9---------------------------------|
9----X----9----X----9----X----9---------------------------------|
9----X----9----X----9----X----9-------------------- 1.29 - 1.32-|

----------------------------------------------------------------|
----------------------------------------------------------------|
11---12---------------------------------------------------------|
9----9----11---12-----------------------------------------------|
9----9----9----9------------------------------------------------|
9----9----9----9----------------------------------- 1.33 - 1.35-|

-----X---------X---------X--------------------------------------|
-----X---------X---------X--------------------------------------|
-----X---------X---------X--------------------------------------|
5----X----5----X----5----X----5---------------------------------|
5----X----5----X----5----X----5---------------------------------|
5----X----5----X----5----X----5-------------------- 1.36 - 1.39-|

2----2----3----0--------------------3----------------------------|
3----3----0----2--------------------0----------------------------|
4----2----0----2----------END ON ->-0----------------------------|
4----0----0----2--------------------0----------------------------| X6
----------2----0--------------------2----------------------------|
----------3----0--------------------0--------------- 1.40 - 2.55-|
Tap to rate this tab
 
# A B C D E F G H I J K L M N O P Q R S T U V W X Y Z