Song name
# A B C D E F G H I J K L M N O P Q R S T U V W X Y Z

Eyes Set To Kill - Darling tab

-------------------------------------------------------------------------------
                             Darling - Eyes Set To Kill
-------------------------------------------------------------------------------
Tabbed by: ASeparatePeace (Jay)
E-mail: Nedddot@aol.com

Tuning: Drop D

 The reason I even made this tab is because I noticed
 the other tabs are either incomplete/wrong or mix both the guitars
 this tab will have BOTH complete guitars separate &
 100% correct. This is the perfect tab
 if you want to cover this song with someone or want to cover
 both guitars. This is my First tab so
 I apologize if you have a little trouble reading it ENJOY! :)
 
Guitar 1 (Rhythm)
e|---------------------------------------------------------------------------|
B|---------------------------------------------------------------------------|
G|---------------------------------------------------------------------------|
D|---------------------------------------------------------------------------|
A|0-0--000000--0-0-0-0-0-0--7-7--777777---8-7-5-7-5-3------------------------| (x4)
D|0-0--000000--0-0-0-0-0-0--7-7--777777---8-7-5-7-5-3------------------------|      
  . .  ......  . . . . . .  . .  ......   . . . . . .
e|---------------------------------------------------------------------------|
B|---------------------------------------------------------------------------|
G|-----------10-9-5----x3----------------10-9--------------------------------|
D|--------------------------------------------10-8---------------------------| (x2)
A|5-7-8-----------------------5-7-8------------------------------------------| 
D|---------------------------------------------------------------------------|
  . . .                       . . .

e|---------------------------------------------------------------------------|
B|---------------------------------------------------------------------------|
G|--------10-9-5------------10-9-----------------------10-9-5-x3-------------|
D|-------------------------------10-7-----------5-7-8------------------------|
A|5-7-8-------------5-7-8---------------x2-----------------------8-7-5-7-5-3-|
D|---------------------------------------------------------------8-7-5-7-5-3-|
  . . .             . . .                       . . .            . . . . . .

e|---------------------------------------------------------------------------|
B|---------------------------------------------------------------------------|
G|---------------------------------------------------------------------------|
D|------------333222000---------------------333222000-5b---------------------|
A|0-0-00000-------------111000---0-0-00000-----------------------------------|
D|0-0-00000----------------------0-0-00000-----------------------------------|
  . . .....                      . . .....

e|---------------------------------------------------------------------------|
B|---------------------------------------------------------------------------|
G|-----------------------------------------------------6---------------------|
D|------------333222000--------------------------------x---------------------|
A|0-0-00000-------------111000--0-0-00000-000-0-0-0-0--4---------------------|
D|0-0-00000---------------------0-0-00000-000-0-0-0-0------------------------|
  . . .....                     . . ..... ... . . . .

e|---------------------------------------------------------------------------|
B|---------------------------------------------------------------------------|
G|---------------------------------------------------------------------------|
D|-----------333222000--------------------333222000-5b-----------------------|
A|0-0-00000------------111000--0-0-00000-------------------------------------|
D|0-0-00000--------------------0-0-00000-------------------------------------|

e|---------------------------------------------------------------------------|
B|--------------------------------------------------6-6-6--------------------|
G|--------------------------------------------------x-x-x--------------------|
D|-----------333222000------------------------------4-4-4--------------------|
A|0-0-00000------------111000--0-0-00000-000-0-0-0---------------------------|
D|0-0-00000--------------------0-0-00000-000-0-0-0---------------------------|
  . . .....                    . . ..... ... . . .

e|---------------------------------------------------------------------------|
B|---------------------------------------------------------------------------|
G|--------------------0h2p0------------------------------6-------------------|
D|--------------------------2h3--------------------------x-------------------|
A|0-0-00000-000-000-0-------------0-0-00000-000-0-0-0-0--4-------------------|
D|0-0-00000-000-000-0-------------0-0-00000-000-0-0-0-0----------------------|
  . . ..... ... ... .             . . ..... ... . . . .

e|---------------------------------------------------------------------------|
B|---------------------------------------------------------------------------|
G|---------------------0h2p0-------------------------------6-6-6-------------|
D|----------------------------2h3--------------------------x-x-x-------------|
A|0-0-00000-000-000-0----------------0-0-00000-000-0-0-0---4-4-4-------------|
D|0-0-00000-000-000-0----------------0-0-00000-000-0-0-0---------------------|
  . . ..... ... ... .                . . ..... ... . . .
e|---------------------------------------------------------------------------|
B|---------------------------------------------------------------------------|
G|--------------------0h2p0------------------------------6-------------------|
D|--------------------------2h3--------------------------x-------------------|
A|0-0-00000-000-000-0-------------0-0-00000-000-0-0-0-0--4-------------------|
D|0-0-00000-000-000-0-------------0-0-00000-000-0-0-0-0----------------------|
  . . ..... ... ... .             . . ..... ... . . . .

e|---------------------------------------------------------------------------|
B|---------------------------------------------------------------------------|
G|---------------------0h2p0-------------------------------6-6-6-------------|
D|----------------------------2h3--------------------------x-x-x-------------|
A|0-0-00000-000-000-0----------------0-0-00000-000-0-0-0---4-4-4-------------|
D|0-0-00000-000-000-0----------------0-0-00000-000-0-0-0---------------------|
  . . ..... ... ... .                . . ..... ... . . .

e|---------------------------------------------------------------------------|
B|---------------------------------------------------------------------------|
G|------------10~------------------------------------------------------------|
D|--8~--------8~-------------------------------------------------------------|
A|--8~--------8~-------------------------------------------------------------|
E|--8~--------8~-------------------------------------------------------------|


e|---------------------------------------------------------------------------|
B|---------------------------------------------------------------------------|
G|-------------------------------------10-----10-----10-----10---------------|
D|-------------------------------------8------8------8------8----------------|(x6)
A|----------5---7----8---10----13-12---8-8888-8-8888-8-8888-8----------------|
D|------------00--00---00---00---------8-8888-8-8888-8-8888-8----------------|
              ..  ..   ..   ..           ....   ....   ....
For this part the guitar is split i'll put the lead in ()
e|---------------------------------------------------------------------------|
B|---------------------------------------------------------------------------|
G|----------(14-14-14-14)------------10-10-10-10--------------(12-12-12)-----|
D|----------(x--x--x--x)--------------x--x--x--x--------------(x--x--x)------|
A|0-0-0-0---(12-12-12-12)-(0-0-0-0)---8--8--8--8----0-0-0-0---(10-10-10)-----|
D|0-0-0-0-----------------(0-0-0-0)-----------------0-0-0-0------------------|
  . . . .                  . . . .                  . . . .
 
e|---------------------------------------------------------------------------|
B|---------------------------------------------------------------------------|
G|-----------9-9-9-9-----------(14--14--14--14-------------10-10-10----------|
D|-----------x-x-x-x-----------(-x---x---x---x)-------------x--x--x----------|
A|(0-0-0-0)--7-7-7-7--8-8-8-8--(12--12--12--12)---(8-8-8)---8--8--8----------|
D|(0-0-0-0)-----------8-8-8-8---------------------(8-8-8)--------------------|
   . . . .            . . . .                      . . .

e|---------------------------------------------------------------------------|
B|---------------------------------------------------------------------------|
G|--------(12)---------------------------------------------------------------|
D|--------(-x)------333222000------------------------------------------------|
A|8-8-8---(10)----------------111000-----------------------------------------|
D|8-8-8----------------------------------------------------------------------|
  . . .

e|---------------------------------------------------------------------------|
B|---------------------------------------------------------------------------|
G|----------(14-14-14-14)------------10-10-10-10--------------(12-12-12)-----|
D|----------(x--x--x--x)--------------x--x--x--x--------------(x--x--x)------|
A|0-0-0-0---(12-12-12-12)-(0-0-0-0)---8--8--8--8----0-0-0-0---(10-10-10)-----|
D|0-0-0-0-----------------(0-0-0-0)-----------------0-0-0-0------------------|
  . . . .                  . . . .                  . . . .
 
e|---------------------------------------------------------------------------|
B|---------------------------------------------------------------------------|
G|-----------9-9-9-9-----------(14--14--14--14-------------10-10-10----------|
D|-----------x-x-x-x-----------(-x---x---x---x)-------------x--x--x----------|
A|(0-0-0-0)--7-7-7-7--8-8-8-8--(12--12--12--12)---(8-8-8)---8--8--8----------|
D|(0-0-0-0)-----------8-8-8-8---------------------(8-8-8)--------------------|
   . . . .            . . . .                      . . .

e|---------------------------------------------------------------------------|
B|---------------------------------------------------------------------------|
G|--------(12)---------------------------------------------------------------|
D|--------(-x)------333222000------------------------------------------------|
A|8-8-8---(10)----------------111000-----------------------------------------|
D|8-8-8----------------------------------------------------------------------|
  . . .
Clean Part:
e|---------------------------------------------------------------------------|
B|---------------------------------------------------------------------------|
G|---------------------------------------------------------------------------|
D|---------------------------------------------------------------------------|(x2)
A|3-3-3-0-0-0-2-2-2-0-0-0--3-3-3-0-0-0-2-2-2-3--2----------------------------|
D|-1-1-1-1-1-1-1-1-1-1-1-1--0-0-0-0-0-0-3-3-3-33-----------------------------|

e|---------------------------------------------------------------------------|
B|---------------------10--10------------------------------------------------|
G|7-7-7-9-9-9-10-10-10-------------------------------------------------------|
D|-7-7-7-7-7-7--7--7--7--77--------------------------------------------------|(x8)
A|---------------------------------------------------------------------------|
D|---------------------------------------------------------------------------|

e|---------------------------------------------------------------------------|
B|---------------------------------------------------------------------------|
G|---------------------------------------------------------------------------|
D|12121212--8888--10101010--7777--12121212--8888--101010101010101010101010---|
A|12121212--8888--10101010--7777--12121212--8888--101010101010101010101010---|
D|12121212--8888--10101010--7777--12121212--8888--101010101010101010101010---|(x2)

e|---------------------------------------------------------------------------|
B|---------------------------------------------------------------------------|
G|---------------------------------------------------------------------------|
D|12121212~--8888~--10101010~--7777~--12121212~--8888~--10101010101010101010-|
A|12121212~--8888~--10101010~--7777~--12121212~--8888~--10101010101010101010-|
D|12121212~--8888~--10101010~--7777~--12121212~--8888~--10101010101010101010-|(x2)

e|---------------------------------------------------------------------------|
B|---10~---------------------------------------------------------------------|
G|---10~---------------------------------------------------------------------|
D|---8~----------------------------------------------------------------------|
A|xx-8~----------------------------------------------------------------------|
D|xx-8~----------------------------------------------------------------------|


   Guitar 2 (Lead)
e|---------------------------------------------------------------------------|
B|---------------------------------------------------------------------------|
G|---------------------------------------------------------------------------|
D|---------------------------------------------------------------------------|
A|0-0--000000--0-0-0-0-0-0--7-7--777777---8-7-5-7-5-3------------------------| (x2)
D|0-0--000000--0-0-0-0-0-0--7-7--777777---8-7-5-7-5-3------------------------|      
  . .  ......  . . . . . .  . .  ......   . . . . . .

e|---------------------------------------------------------------------------|
B|8h10-5h6p5-----6h8-6p5b-----------------------------------------------------|
G|-----------5h7-------------------------------------------------------------|
D|---------------------------------------------------------------------------|(x4)
A|---------------------------------------------------------------------------|
D|---------------------------------------------------------------------------|

e|---------------------------------------------------------------------------|
B|8h10-5h6p5------6h8-6p5b---------------------------------------------------|
G|------------5h7-------------------10--10--10-------9-9-9-------------------|
D|----------------------------8-8-8-x---x--x--8-8-8--x-x-x-------------------|
A|----------------------------8-8-8-8---8--8--8-8-8--7-7-7-------------------|
D|----------------------------8-8-8-----------8-8-8--------------------------|
                              . . .           . . .
e|---------------------------------------------------------------------------|
B|8h10-5h6p5------6h8-6p5b---------------------------------------------------|
G|------------5h7--------------------12--12-12--------9-9-9------------------|
D|----------------------------0-0-0---x--x--x--0-0-0--x-x-x------------------|
A|----------------------------0-0-0--10-10-10--0-0-0--7-7-7------------------|
D|----------------------------0-0-0------------0-0-0-------------------------|
                              . . .            . . .

e|---------------------------------------------------------------------------|
B|---------------------------------------------------------------------------|
G|------10-10-10----------7-7-7-----------12-12-12---------7-7-7-------------|
D|8-8-8--x-x-x-----8-8-8--x-x-x----0-0-0---x-x-x----0-0-0--x-x-x-------------|
A|8-8-8--8-8-8-----8-8-8--9-9-9----0-0-0--10-10-10--0-0-0--9-9-9-------------|
D|8-8-8------------8-8-8-----------0-0-0------------0-0-0--------------------|
  . . .            . . .           . . .            . . .
e|---------------------------------------------------------------------------|
B|---------------------------------------------------------------------------|
G|-------15-15-15---------14-14-14---------10-10-10--------------------------|
D|8-8-8---x--x--x--8-8-8---x--x--x---0-0-0--x-x-x------8-7-5-7-5-3-----------|
A|8-8-8--13-13-13--8-8-8--12-12-12---0-0-0--8-8-8------8-7-5-7-5-3-----------|
D|8-8-8------------8-8-8-------------0-0-0-------------8-7-5-7-5-3-----------|
  . . .            . . .             . . .             . . . . . .

e|---------------------------------------------------------------------------|
B|---------------------------------------------------------------------------|
G|-------------101010999777---------------------10101099977712b--------------|
D|-------------------------888777--------------------------------------------|
A|0-0-0000000------------------------0-0-0000000-----------------------------|
D|0-0-0000000------------------------0-0-0000000-----------------------------|
  . . .......                        . . .......
e|---------------------------------------------------------------------------|
B|---------------------------------------------------------------------------|
G|-----------101010999777----------------------------------------------------|
D|-----------------------888777--------------------------3*------------------|
A|0-0-0000000----------------------0-0-0000000-000-0-0-0---------------------|
D|0-0-0000000----------------------0-0-0000000-000-0-0-0---------------------|
  . . .......                      . . ....... ... . . .

e|---------------------------------------------------------------------------|
B|---------------------------------------------------------------------------|
G|-------------101010999777---------------------10101099977712b--------------|
D|-------------------------888777--------------------------------------------|
A|0-0-0000000------------------------0-0-0000000-----------------------------|
D|0-0-0000000------------------------0-0-0000000-----------------------------|
  . . .......                        . . .......

e|---------------------------------------------------------------------------|
B|---------------------------------------------------------------------------|
G|-----------101010999777--------------------------------6-6-6---------------|
D|-----------------------888777--------------------------x-x-x---------------|
A|0-0-0000000----------------------0-0-0000000-000-0-0-0-4-4-4---------------|
D|0-0-0000000----------------------0-0-0000000-000-0-0-0---------------------|
  . . .......                      . . ....... ... . . .


e|---------------------------------------------------------------------------|
B|---------------------------------------------------------------------------|
G|---------------------9h10p9-------------------------------6----------------|
D|---------------------------10h12--------------------------x----------------|
A|0-0-0000000-000-000-0-------------0-0-0000000-000-0-0-0-0-4----------------|
D|0-0-0000000-000-000-0-------------0-0-0000000-000-0-0-0-0------------------|
  . . ....... ... ... .             . . ....... ... . . . .
e|---------------------------------------------------------------------------|
B|---------------------------------------------------------------------------|
G|----------------------9h10p9------------------------6-6-6------------------|
D|----------------------------10h12-------------------x-x-x------------------|
A|0-0-0000000-000-000-0-------------0-0-0000000-0-0-0-4-4-4------------------|
D|0-0-0000000-000-000-0-------------0-0-0000000-0-0-0------------------------|
  . . ....... ... ... .             . . ....... . . .
e|---------------------------------------------------------------------------|
B|---------------------------------------------------------------------------|
G|---------------------9h10p9-------------------------------6----------------|
D|---------------------------10h12--------------------------x----------------|
A|0-0-0000000-000-000-0-------------0-0-0000000-000-0-0-0-0-4----------------|
D|0-0-0000000-000-000-0-------------0-0-0000000-000-0-0-0-0------------------|
  . . ....... ... ... .             . . ....... ... . . . .

e|---------------------------------------------------------------------------|
B|---------------------------------------------------------------------------|
G|----------------------9h10p9------------------------6-6-6------------------|
D|----------------------------10h12-------------------x-x-x------------------|
A|0-0-0000000-000-000-0-------------0-0-0000000-0-0-0-4-4-4------------------|
D|0-0-0000000-000-000-0-------------0-0-0000000-0-0-0------------------------|
  . . ....... ... ... .             . . ....... . . .

e|---------------------------------------------------------------------------|
B|---------------------------------------------------------------------------|
G|------10~------------------------------------------------------------------|
D|8~-----8~------------------------------------------------------------------|
A|8~-----8~------------------------------------------------------------------|
D|8~-----8~------------------------------------------------------------------|

e|---------------------------------------------------------------------------|
B|--------------------15-15-17-15-18-15-15-20-18-15h17h18p17p15-17-----------|
G|---------------------------------------------------------------------------|
D|---------------------------------------------------------------------------|(x2)
A|5---7--8--10--13-12--------------------------------------------------------|
D|--00-00-00--00-------------------------------------------------------------|
    .. .. ..  ..
e|---------------------------------------------------------------------------|
B|15-15-17-15-18-15-15-20-18-15h17h18p17p15-17-------------------------------|
G|---------------------------------------------------------------------------|
D|---------------------------------------------------------------------------|(x2)
A|---------------------------------------------------------------------------|
D|---------------------------------------------------------------------------|

e|---------------------------------------------------------------------------|
B|15-15-17-15-18-15-15-20-18-15h17h18p17p15-17h18p17p15----------------------|
G|---------------------------------------------------------------------------|(x2)
D|---------------------------------------------------------------------------|
A|---------------------------------------------------------------------------|
D|---------------------------------------------------------------------------|

For this part the guitars are split i'll put the rhythm part in ()
e|---------------------------------------------------------------------------|
B|---------------------------------------------------------------------------|
G|----------14-14-14---------(10-10-10)-----------12-12-12----------(9-9-9)--|
D|-----------x--x--x----------x-x-x----------------x--x--x-----------x-x-x---|
A|(0-0-0-0)-12-12-12-0-0-0-0-(8-8-8)----(0-0-0-0)-10-10-10-0-0-0-0--(7-7-7)--|
D|(0-0-0-0)----------0-0-0-0------------(0-0-0-0)----------0-0-0-0-----------|
   . . . .           . . . .             . . . .           . . . .

e|---------------------------------------------------------------------------|
B|---------------------------------------------------------------------------|
G|----------14-14-14----------(10-10-10)-----------12-----101010999777-------|
D|-----------x--x--x-----------(x--x--x)-----------x------------------888777-|
A|(8-8-8-8)-12-12-12-8-8-8-8--(8--8--8)--(8-8-8-8)-10------------------------|
D|(8-8-8-8)----------8-8-8-8------------(8-8-8-8)----------------------------|
   . . . .           . . . .             . . . .
e|---------------------------------------------------------------------------|
B|---------------------------------------------------------------------------|
G|----------14-14-14---------(10-10-10)-----------12-12-12----------(9-9-9)--|
D|-----------x--x--x----------x-x-x----------------x--x--x-----------x-x-x---|
A|(0-0-0-0)-12-12-12-0-0-0-0-(8-8-8)----(0-0-0-0)-10-10-10-0-0-0-0--(7-7-7)--|
D|(0-0-0-0)----------0-0-0-0------------(0-0-0-0)----------0-0-0-0-----------|
   . . . .           . . . .             . . . .           . . . .

e|---------------------------------------------------------------------------|
B|---------------------------------------------------------------------------|
G|----------14-14-14----------(10-10-10)-----------12-----1010109997\-3~-----|
D|-----------x--x--x-----------(x--x--x)-----------x-------------------------|
A|(8-8-8-8)-12-12-12-8-8-8-8--(8--8--8)--(8-8-8-8)-10------------------------|
D|(8-8-8-8)----------8-8-8-8------------(8-8-8-8)----------------------------|
   . . . .           . . . .             . . . .

e|---------------------------------------------------------------------------|
B|---------------------------------------------------------------------------|
G|--------------------------777777-7555551010101010109999991212121210101010--|
D|--*REST*------888888888888----------------------------------------------x4-|
A|---------------------------------------------------------------------------|
D|---------------------------------------------------------------------------|

e|---------------------------------------------------------------------------|
B|---------------------------------------------------------------------------|
G|14-14-14-14--10-10-10-10--12-12-12-12---9-9-9-9----------------------------|
D|-x--x--x--x---x--x--x--x---x--x--x--x---x-x-x-x----------------------------|
A|12-12-12-12---8--8--8--8--10-10-10-10---7-7-7-7----------------------------|
D|---------------------------------------------------------------------------|

e|---------------------------------------------------------------------------|
B|---------------------------------------------------------------------------|
G|14-14-14-14---10-10-10-10---12-12-12-12-12-12-12---------------------------|
D|-x--x--x--x----x--x--x--x----x--x--x--x--x--x--x---------------------------|
A|12-12-12-12---8--8--8--8----10-10-10-10-10-10-10---------------------------|
D|---------------------------------------------------------------------------|


e|---------------------------------------------------------------------------|
B|---------------------------------------------------------------------------|
G|14-14-14-14--10-10-10-10--12-12-12-12---9-9-9-9----------------------------|
D|-x--x--x--x---x--x--x--x---x--x--x--x---x-x-x-x----------------------------|
A|12-12-12-12---8--8--8--8--10-10-10-10---7-7-7-7----------------------------|
D|---------------------------------------------------------------------------|

e|---------------------------------------------------------------------------|
B|---------------------------------------------------------------------------|
G|14-14-14-14---10-10-10-10---12-12-12-12-12-12-12---------------------------|
D|-x--x--x--x----x--x--x--x----x--x--x--x--x--x--x---------------------------|
A|12-12-12-12---8--8--8--8----10-10-10-10-10-10-10---------------------------|
D|---------------------------------------------------------------------------|


e|---------------------------------------------------------------------------|
B|---------------------------------------------------------------------------|
G|14-14-14-14-14-14-12-12-12-12-12-12-10-10-10-10--9--9--9--9----------------|
D|-x--x--x--x--x--x--x--x--x--x--x--x--x--x--x--x--x--x--x--x----------------|
A|12-12-12-12-12-12-10-10-10-10-10-10--8--8--8--8--7--7--7--7----------------|
D|---------------------------------------------------------------------------|

e|---------------------------------------------------------------------------|
B|---------------------------------------------------------------------------|
G|14-14-14-14----12-12-12-12--17-17-17-17-17-17-17---------------------------|
D|-x--x--x--x-----x--x--x--x---x--x--x--x--x--x--x---------------------------|
A|12-12-12-12----10-10-10-10--15-15-15-15-15-15-15---------------------------|
D|---------------------------------------------------------------------------|

e|---------------------------------------------------------------------------|
B|---------------------------------------------------------------------------|
G|14-14-14-14-14-14-12-12-12-12-12-12-10-10-10-10--9--9--9--9----------------|
D|-x--x--x--x--x--x--x--x--x--x--x--x--x--x--x--x--x--x--x--x----------------|
A|12-12-12-12-12-12-10-10-10-10-10-10--8--8--8--8--7--7--7--7----------------|
D|---------------------------------------------------------------------------|

e|---------------------------------------------------------------------------|
B|---------------------------------------------------------------------------|
G|14-14-14-14---17-17-17-17--19-19-19-19-19-19--xxx-21b----------------------|
D|-x--x--x--x----x--x--x--x--x--x--x--x--x--x---xxx--x-----------------------|
A|12-12-12-12---15-15-15-15--17-17-17-17-17-17--xxx-19b----------------------|
D|---------------------------------------------------------------------------|

Well that's it whew! writing tabs is more work then i thought XD

************************************

| /   slide up
| \   slide down
| h   hammer-on
| p   pull-off
| ~   vibrato
| +   harmonic
| x   Mute note
| b   Bend
| pb  Pre-bend
| br  Bend release
| pbr Pre-bend release
| brb Bend release bend

************************************
Tap to rate this tab
# A B C D E F G H I J K L M N O P Q R S T U V W X Y Z