Song name
# A B C D E F G H I J K L M N O P Q R S T U V W X Y Z

Eyes Set To Kill - Young Blood Spills Tonight tab

drop D - DADGBe

G1- RHYTHM  G2-LEAD

---CLEAN
G1  
  rhythm picking whit full chords:)
E|--1----1----1----0-|       
B|--2----3----1----1-|
G|--3----3----2----0-|  x3
D|--0----3----3----2-|
A|-----------------3-|
D|-------------------|

           X4       X4       X4       X2       X2
E|-----1---|----1---|----1---|----1---|----0---|
B|-------3-|------3-|------3-|------1-|------1-|
G|----3----|---2----|---3----|---2----|---0----|
D|--3------|-0------|-3------|-3------|-2------|
A|---------|--------|--------|--------|--------|
D|---------|--------|--------|--------|--------|
    ++++++   ++++++   ++++++   ++++++   ++++++

---DISTORTION
G1

E|---------------------------------------------|-------------------|
B|---------------------------------------------|-------------------|
G|--14-14141414-12-12121212-10-10101010-9-9999-|-------------------|
D|---------------------------------------------|-8-888888-8-888888-|
A|--12-12121212-10-10101010--8--8-8-8-8-7-7777-|-8-888888-8-888888-|
D|---------------------------------------------|-8-888888-8-888888-|
                                                   ******   ******
G2

E|---------------------------------------------|-------------------|
B|---------------------------------------------|-------------------|
G|--14-14141414-12-12121212-10-10101010-9-9999-|-7-777777-7-777777-|
D|---------------------------------------------|-------------------|
A|--12-12121212-10-10101010--8--8-8-8-8-7-7777-|-5-555555-5-555555-|
D|---------------------------------------------|-------------------|
           
---DISTORTION
G1

E|--------------------------------------------------|-------------------------------------|
B|--------------------------------------------------|-------------------------------------|
G|--10-10101010-12-12121212-14-14141414-17-17171717-|-------------------------------------|
D|--------------------------------------------------|-8-888888-8-888888-8-888888-8-888888-|
A|---8--8-8-8-8-10-10101010-12-12121212-15-15151515-|-8-888888-8-888888-8-888888-8-888888-|
D|--------------------------------------------------|-8-888888-8-888888-8-888888-8-888888-|
                                                        ******   ******   ******   ******
G2

E|--------------------------------------------------|---------------------------------------|
B|--------------------------------------------------|---------------------------------------|
G|--10-10101010-12-12121212-14-14141414-17-17171717-|-7-7777-9-9999-10-10101010-10-10101010-|
D|--------------------------------------------------|---------------------------------------|
A|---8--8-8-8-8-10-10101010-12-12121212-15-15151515-|-5-5555-7-7777--8--8-8-8-8--8--8-8-8-8-|
D|--------------------------------------------------|---------------------------------------|

---CLEAN
G1 
           x4
E|------0--|
B|----6--6-|
G|---7-7---|
D|--0------|
A|---------|
D|---------|
    ++++++

G2 SILENCE

---DISTORTION
G1 + G2 

E|---------------------------|
B|---------------------------|
G|---------------------------|
D|--8-88-8-XXXX--7-77-7-XXXX-|
A|--8-88-8-XXXX--7-77-7-XXXX-|
D|--8-88-8-XXXX--7-77-7-XXXX-|
      *            *

E|------------------|
B|------------------|
G|------14---12---9-|
D|--0---------------|
A|--0---12---10---7-|
D|--0---------------|
    *

E|----------------------------|
B|----------------------------|
G|----------------------------|
D|---8-88-8-XXXX--7-77-7-XXXX-|
A|---8-88-8-XXXX--7-77-7-XXXX-|
D|---8-88-8-XXXX--7-77-7-XXXX-|
       *            *
                X4
E|--------------|
B|-------6--5h6-|
G|---7-7--7-----|
D|--------------|
A|--------------|
D|--------------|
     * *

E|---------------------------|
B|---------------------------|
G|---------------------------|
D|--8-88-8-XXXX--7-77-7-XXXX-|
A|--8-88-8-XXXX--7-77-7-XXXX-|
D|--8-88-8-XXXX--7-77-7-XXXX-|
      *            *

E|------------------|
B|------------------|
G|------14---12---9-|
D|--0---------------|
A|--0---12---10---7-|
D|--0---------------|
    *

E|---------------------------|
B|---------------------------|
G|---------------------------|
D|--8-88-8-XXXX--7-77-7-XXXX-|
A|--8-88-8-XXXX--7-77-7-XXXX-|
D|--8-88-8-XXXX--7-77-7-XXXX-|
      *            *
---DISTORTION
G1

E|----------|---------|
B|----------|---------|                         
G|----------|---------|
D|--8-8-8-8-|-0-0-0-0-|
A|--8-8-8-8-|-0-0-0-0-|
D|--8-8-8-8-|-0-0-0-0-|

G2
                     X4                        X2
E|-------------------|-------------------------|
B|--8h10p8-----------|-----6---5h6-----8---5h6-|
G|---------10-9----9-|-7-7---7-----7-7---7-----|
D|--------------10---|-------------------------|
A|-------------------|-------------------------|
D|-------------------|-------------------------|

---DISTORTION
G1

E|----------|---------|
B|----------|---------|                         
G|----------|---------|
D|--8-8-8-8-|-0-0-0-0-|
A|--8-8-8-8-|-0-0-0-0-|
D|--8-8-8-8-|-0-0-0-0-|

G2
                     X4                        
E|-------------------|-----------------------------------------------------|
B|--8h10p8-----------|-----6---5h6-----8---6h8-----10---8h10-----10---8h10-|
G|---------10-9----9-|-7-7---7-----7-7---7-----7-7----7------7-7----7------|
D|--------------10---|-----------------------------------------------------|
A|-------------------|-----------------------------------------------------|
D|-------------------|-----------------------------------------------------|

---DISTORTION
G1

E|----------|---------|
B|----------|---------|                         
G|----------|---------|
D|--8-8-8-8-|-0-0-0-0-|
A|--8-8-8-8-|-0-0-0-0-|
D|--8-8-8-8-|-0-0-0-0-|

G2
                     X4                        X2
E|-------------------|-------------------------|
B|--8h10p8-----------|-----6---5h6-----8---5h6-|
G|---------10-9----9-|-7-7---7-----7-7---7-----|
D|--------------10---|-------------------------|
A|-------------------|-------------------------|
D|-------------------|-------------------------|

---DISTORTION
G1

E|----------|---------|
B|----------|---------|                         
G|----------|---------|
D|--8-8-8-8-|-3-3-7-0-|
A|--8-8-8-8-|-3-3-7-0-|
D|--8-8-8-8-|-3-3-7-0-|

G2
                     X4                        
E|-------------------|-------------------------------------------|
B|--8h10p8-----------|-----6---5h6-----8---6h8-----10---8h10-----|
G|---------10-9----9-|-7-7---7-----7-7---7-----7-7----7----------|
D|--------------10---|----------------------------------------0--|
A|-------------------|----------------------------------------0--|
D|-------------------|----------------------------------------0--|

---CLEAN
G1
                                                                   X6
E|---------------8p5--------------------6---------5----------------|
B|------6---5h6------6----5h6-------------6--6------5---5----------|
G|--------7-----7-------7-----7------7------7---------7---7--------|
D|-----7--------------7------------8---8--------------------8---8--|
A|---5---------------------------8----------------------------8----|
D|-----------------------------------------------------------------|
    ++++++++++++     ++++++++++  ++++++ ++++++    +++++++ +++++++

G2 SILENCE

---DISTORTION
G1 + G2
                                  1                              1/2
E|----------------|-----------------|---------------|----------------|
B|----------------|-----------------|---------------|----------------|
G|----------------|-----------------|---------------|----------------|    X2
D|--0-0-00-0-0-7--|--0-0-00-0-0-10b-|-8-8-88-8-8-9--|-7-7-77-7-7-9b--|
A|--0-0-00-0-0-5--|--0-0-00-0-0--8b-|-8-8-88-8-8-7--|-7-7-77-7-7-7---|
D|--0-0-00-0-0----|--0-0-00-0-0-----|-8-8-88-8-8----|-7-7-77-7-7-----|
    * * ** * *       * * ** * *       * * ** * *      * * ** * *
---DISTORTION
G1
                                                            
E|------------------------------|--------------------------|
B|------------------------------|--------------------------|
G|------------------------------|--------------------------|   X4
D|--00-7-5-7-10--00-7p5s3-5-3-2-|--88-8-5-7-5--77-5h7p5s3--|
A|--00-----------00-------------|--88----------77----------|
D|--00-----------00-------------|--88----------77----------|
    **           **                **          **
G2

E|----------------------------|---------------------------|
B|----------------------------|---------------------------|
G|----------------------------|---------------------------|   X4
D|--00-------7-00-------------|--88-----------77----------|
A|--00-8-7-8---00-8p7s5-7-5-3-|--88-10-7-8-7--77-7h8p7s5--|
D|--00---------00-------------|--88-----------77----------|
    **         **                **           **

G1 + G2

E|--------|
B|--------|
G|--------|
D|--0~~~~-|
A|--0~~~~-|
D|--0~~~~-|

h - Hammer on
p - Pull off
* - Palm Muted
b - Bend
+ - Let Ring

Thanks for watching
ungored@gmail.com
Tap to rate this tab
# A B C D E F G H I J K L M N O P Q R S T U V W X Y Z