Song name
# A B C D E F G H I J K L M N O P Q R S T U V W X Y Z

Eyes Set To Kill - Ticking Bombs Acoustic tab

-------------------------------------------------------------------------------
                             Ticking Bomb - Eyes Set To Kill
-------------------------------------------------------------------------------
Tabbed by: RowdyNeil
E-mail: rowdyneil18@gmail.com

Tuning: Whole Step Down DGCFAD

Intro:

D|-----0---0---0---0---0---0---0---0|
A|----1---1---1---1---1---1---1---1-|
F|---2---2---2---2---2---2---2---2--|
C|------------------3---3---0---0---|
G|--0---0---0---0-------------------|
D|----------------------------------|

Verse #1: 
D|-----0---0---0---0---0---0---0---0---0---0---0---0---0---0---0---0|
A|----1---1---1---1---1---1---1---1---1---1---1---1---1---1---1---1-|
F|---2---2---2---2---2---2---2---2---2---2---2---2---2---2---2---2--|
C|------------------3---3---3---3---0---0---0---0-------------------|
G|--0---0---0---0-----------------------------------0---0---0---0---|
D|------------------------------------------------------------------| (x2)

PreChorus #1: (Chords)
D|-0----------0----------0------|
B|-1----------1----------1------|
G|-2----------2----------2------|
D|-3----------0----------2------|
A|-0----------0----------0------|
D|-x----------x----------x------|(X2)

Chorus #1: (Chords)
D|-0----------0----------0------|
B|-1----------1----------1------|
G|-2----------2----------2------|
D|-3----------0----------2------|
A|-0----------0----------0------|(Second time you stop after strumming the 
D|-x----------x----------x------|x00210 chord once)


Interclude: 

D|-----0---0---0---0-
A|----1---1---1---1--
F|---2---2---2---2---
C|-------------------
G|--0---0---0---0----
D|-------------------

Verse:2
D|-----0---0---0---0---0---0---0---0---0---0---0---0---0---0---0---0|
A|----1---1---1---1---1---1---1---1---1---1---1---1---1---1---1---1-|
F|---2---2---2---2---2---2---2---2---2---2---2---2---2---2---2---2--|
C|------------------3---3---3---3---0---0---0---0-------------------|
G|--0---0---0---0-----------------------------------0---0---0---0---|
D|------------------------------------------------------------------| (x2)

PreChours #2
D|-0----------0----------0------|
B|-1----------1----------1------|
G|-2----------2----------2------|
D|-3----------0----------2------|
A|-0----------0----------0------|
D|-x----------x----------x------|(X2)(This part you keep strumming the x00210
                                    on the second run through and afterwards 
                                    jump straight into the chorus)
Chorus #2:
D|-0----------0----------0------|
B|-1----------1----------1------|
G|-2----------2----------2------|
D|-3----------0----------2------|
A|-0----------0----------0------|(x4) (on the 4th time just strum the first 
D|-x----------x----------x------|      2 chords once)

Ending Verse: 
D|-----0---0---0---0---0---0---0---0|
A|----1---1---1---1---1---1---1---1-|
F|---2---2---2---2---2---2---2---2--|
C|------------------3---3---0---0---|
G|--0---0---0---0-------------------|
D|----------------------------------|

D|-----0---0---0---0---0---0---0---0---0---0---0---0---0----|
A|----1---1---1---1---1---1---1---1---1---1---1---1----1----|
F|---2---2---2---2---2---2---2---2---2---2---2---2-----2----|
C|------------------3---3---3---3---0---0---0---0------2----|(Strum the last
G|--0---0---0---0--------------------------------------0----|chord once)
D|-----------------------------------------------------x----|
Tap to rate this tab
# A B C D E F G H I J K L M N O P Q R S T U V W X Y Z