Song name
# A B C D E F G H I J K L M N O P Q R S T U V W X Y Z

Eyes Set To Kill - Darling tab

Tuning: Drop D

h- hammer on
p- pull off
. - palm mute
* - pinch harmonic
//- bend
~ - let ring


Intro
e|------------------------------------------------------------------|x4
B|------------------------------------------------------------------| 
G|------------------------------------------------------------------|
D|--00--0000000-0-0-0-0-0-0-77-777777-8-7-5-7-5-3-------------------|
A|--00--0000000-0-0-0-0-0-0-77-777777-8-7-5-7-5-3-------------------|
E|--00--0000000-0-0-0-0-0-0-77-777777-8-7-5-7-5-3-------------------|
    ..  ....... . . . . . . .. ...... . . . . . .

Guitar 2
e|----------3h5-0h1p0-----3h5--------------------------------------|
B|--------------------1h3-----6p5----------------------------------| 
G|-----------------------------------------------------------------|
D|-----------------------------------------------------------------|
A|-----------------------------------------------------------------|
E|-----------------------------------------------------------------|


e|-----------------------------------------------------------------|x4
B|-----------------------------------------------------------------| 
G|-------10-10-10-10--------9999-------12121212-------9999---------|
D|--888---x--x--x--x----888-xxxx--000---x-x-x-x--000--xxxx---------|
A|--888---8--8--8--8----888-7777--000--10101010--000--7777---------|
E|--888-----------------888-------000------------000---------------|
    ...                 ...       ...            ...

4th time ends with this
e|-----------------------------------------------------------------|
B|-----------------------------------------------------------------| 
G|-----------------------------------------------------------------|
D|--8-7-5-7-5-3----------------------------------------------------|
A|--8-7-5-7-5-3----------------------------------------------------|
E|--8-7-5-7-5-3----------------------------------------------------|
    . . . . . .

e|------------------------------------------------------------------|
B|------------------------------------------------------------------| 
G|------------------------------------------------------------------|
D|--0000000--333222000------------0000000--333222000-5//------------|
A|--0000000-----------111000------0000000---------------------------|
E|--0000000-----------------------0000000---------------------------|
    .......                       .......

e|------------------------------------------------------------------|
B|------------------------------------------------------------------| 
G|------------------------------------------------------------------|
D|--0000000--333222000------------0000000-000-00-0-0----------------|
A|--0000000-----------111000------0000000-000-00-0-0-3*-------------|
E|--0000000-----------------------0000000-000-00-0-0----------------|
    .......                       ....... ... .. . .

e|------------------------------------------------------------------|
B|------------------------------------------------------------------| 
G|------------------------------------------------------------------|
D|--0000000--333222000------------0000000--333222000-5//------------|
A|--0000000-----------111000------0000000---------------------------|
E|--0000000-----------------------0000000---------------------------|
    .......                       .......

e|------------------------------------------------------------------|
B|------------------------------------------------------------------| 
G|---------------------------------------------------6-6-6----------|
D|--0000000--333222000------------0000000-000-00-0-0-0-0-0----------|
A|--0000000-----------111000------0000000-000-00-0-0-4-4-4----------|
E|--0000000-----------------------0000000-000-00-0-0----------------|
    .......                       ....... ... .. . .

e|------------------------------------------------------------------|
B|------------------------------------------------------------------| 
G|--------------------------------------------------6---------------|
D|--0000000-000-00-0h2p0-----0000000-000-00-0-0-0-0-0---------------|
A|--0000000-000-00-------2h3-0000000-000-00-0-0-0-0-4---------------|
E|--0000000-000-00-----------0000000-000-00-0-0-0-0-----------------|
    ....... ... ..           ....... ... .. . . . .

e|------------------------------------------------------------------|
B|------------------------------------------------------------------| 
G|-----------------------------------------------6-6-6--------------|
D|--0000000-000-00-8h10p8-----0000000-000-00-0-0-0-0-0--------------|
A|--0000000-000-00-------9h10-0000000-000-00-0-0-4-4-4--------------|
E|--0000000-000-00------------0000000-000-00-0-0--------------------|
    ....... ... ..            ....... ... .. . .


e|------------------------------------------------------------------|
B|------------------------------------------------------------------| 
G|--------------------------------------------------6---------------|
D|--0000000-000-00-0h2p0-----0000000-000-00-0-0-0-0-0---------------|
A|--0000000-000-00-------2h3-0000000-000-00-0-0-0-0-4---------------|
E|--0000000-000-00-----------0000000-000-00-0-0-0-0-----------------|
    ....... ... ..           ....... ... .. . . . .

e|------------------------------------------------------------------|
B|------------------------------------------------------------------| 
G|-----------------------------------------------6-6-6--------------|
D|--0000000-000-00-8h10p8-----0000000-000-00-0-0-0-0-0-8~-----------|
A|--0000000-000-00-------9h10-0000000-000-00-0-0-4-4-4-8~-----------|
E|--0000000-000-00------------0000000-000-00-0-0-------8~-----------|
    ....... ... ..            ....... ... .. . .

...

e|-----------------------------------------------------------------|
B|-----------------------------------------------------------------| 
G|--------14141414-------10101010-------12121212-------9999--------|
D|--0000---x-x-x-x--0000--x-x-x-x--0000--x-x-x-x--0000-xxxx--------|
A|--0000--12121212--0000--8-8-8-8--0000-10101010--0000-7777--------|
E|--0000------------0000-----------0000-----------0000-------------|
    ....            ....           ....           ....

e|-----------------------------------------------------------------|
B|-----------------------------------------------------------------| 
G|--------14141414-------10101010-------9--------------------------|
D|--8888---x-x-x-x--8888--x-x-x-x--8888-x-333222000----------------|
A|--8888--12121212--8888--8-8-8-8--8888-7----------111000----------|
E|--8888------------8888-----------8888----------------------------|
    ....            ....           ....           

ending 2nd time
e|-----------------------------------------------------------------|
B|-----------------------------------------------------------------| 
G|-----------------------------------------------------------------|
D|-3332220004-1----------------------------------------------------|
A|-----------------------------------------------------------------|
E|-----------------------------------------------------------------|

clean part
e|-----------------------------------------------------------------|
B|-----------------------------------------------------------------| 
G|-----------------------------------------------------------------|
D|--3-3-3-0-0-0-2-2-2-0-0-0-3-3-3-0-0-0-2-2-2-2-2------------------|
A|---1-1-1-1-1-1-1-1-1-1-1-1-0-0-0-0-0-0-3-3-3-3-3-----------------|
E|-----------------------------------------------------------------|


"..don't mind me I'm only dying.."
e|-----------------------------------------------------------------|
B|-----------------------------------------------------------------| 
G|--------------777555555101010101010999999121212121212121212121212|
D|-8888888888888---------------------------------------------------|
A|-----------------------------------------------------------------|
E|-----------------------------------------------------------------|
Tap to rate this tab
# A B C D E F G H I J K L M N O P Q R S T U V W X Y Z