Song name
# A B C D E F G H I J K L M N O P Q R S T U V W X Y Z

Eyes Set To Kill - Young Blood Spills Tonight tab

Drop D

(h)hammer
(p)pull off
(p.m)palm mute
(/)slide

INTRO-clean                      (figure out strumming)
e|--0--------0--------0--------0----------------------|3x
B|--2--------6--------6--------8----------------------|
G|--3--------7--------7--------9----------------------|
D|--0--------8--------8-------10----------------------|
A|--0--------8--------8-------10----------------------|
E|--0--------0--------8--------0----------------------|

INTRO-cont.
e|----------------------------------------------------|
B|-------6---(4x)-----6---(4x)----6---(4x)----6-------|
G|---------7------------7-----------7-----------7-----|
D|--8-8------------------------------------10---------|
A|-----------------00----------99----------10---------|
E|-----------------00----------99---------------------|

VERSE
e|----------------------------------------------------|1x
B|----------------------------------------------------|
G|--10101010/-9999/-7777/-6666------------------------|
D|---x-x-x-x/-xxxx/-xxxx/-xxxx------------------------|
A|---8-8-8-8/-7777/-5555/-4444------------------------|
E|----------------------------------------------------|

e|----------------------------------------------------|1x
B|----------------------------------------------------|
G|--10101010/-9999/-14141414141414--------------------|
D|---x-x-x-x/-xxxx/--x-x-x-x-x-x-x--------------------|
A|---8-8-8-8/-7777/-12121212121212--------------------|
E|----------------------------------------------------|

e|----------------------------------------------------|1x
B|----------------------------------------------------|
G|--10101010/-9999/-7777/-6666------------------------|
D|---x-x-x-x/-xxxx/-xxxx/-xxxx------------------------|
A|---8-8-8-8/-7777/-5555/-4444------------------------|
E|----------------------------------------------------|

e|----------------------------------------------------|1x
B|----------------------------------------------------|
G|--7777/-9999/-14141414141414------------------------|
D|--xxxx/-xxxx/--x-x-x-x-x-x-x------------------------|
A|--5555/-7777/-12121212121212------------------------|
E|----------------------------------------------------|

CLEAN
e|--------0------------|4x
B|-----6---6-----------|
G|--7------------------|
D|---------------------|
A|---------------------|
E|---------------------|


e|--------------------------------------------------------------|1x
B|--------------------------------------------------------------|
G|--------------------------------------------------------------|
D|--888888-8888-777777-7777-0~-------888888-8888-777777-7777----|
A|--888888-8888-777777-7777-0~-8-7-4-888888-8888-777777-7777----|
E|--888888-8888-777777-7777-0~-------888888-8888-777777-7777----|
P.M        ....        ....                 ....        ....

e|----------------------------------------------------|1x
B|------6-5h6----6-5h6----6-5h6----6-5h6--------------|
G|----------------------------------------------------|
D|---00-------00-------00-------00--------------------|
A|---00-------00-------00-------00--------------------|
E|---00-------00-------00-------00--------------------|
P.M  ..       ..       ..       ..

e|--------------------------------------------------------------|1x
B|--------------------------------------------------------------|
G|--------------------------------------------------------------|
D|--888888-8888-777777-7777-0~-------888888-8888-777777-7777----|
A|--888888-8888-777777-7777-0~-8-7-4-888888-8888-777777-7777----|
E|--888888-8888-777777-7777-0~-------888888-8888-777777-7777----|
P.M        ....        ....                 ....        ....


e|--3h4p3-------3h4p3--------3h4p3-------3h4p3------------------|1x
B|--------6-5-6-------6-5-6--------6-5-6-------6-5-6------------|
G|--------------------------------------------------------------|
D|--------------------------------------------------------------|
A|--------------------------------------------------------------|
E|--------------------------------------------------------------|



e|-------------------------------------------------|1x
B|-----6-5h6----8-6h8----10-8h10----10-8h10--------|
G|-------------------------------------------------|
D|--00-------00-------00---------00----------------|
A|--00-------00-------00---------00----------------|
E|--00-------00-------00---------00----------------|
P.M ..       ..       ..         ..


e|--3h4p3-------3h4p3--------3h4p3-------3h4p3------------------|1x
B|--------6-5-6-------6-5-6--------6-5-6-------6-5-6------------|
G|--------------------------------------------------------------|
D|--------------------------------------------------------------|
A|--------------------------------------------------------------|
E|--------------------------------------------------------------|


e|---------------------------------------------------|1x
B|-----6-5h6----8-6h8----10-8h10----10-8h10----------|
G|---------------------------------------------------|
D|--00-------00-------00---------00------------0~----|
A|--00-------00-------00---------00------------0~----|
E|--00-------00-------00---------00------------0~----|
P.M ..       ..       ..         ..            

CLEAN

e|--------0-----8---------------6-----5-----5-----------------|repeat
B|----6-----6-----6---6-----6-----6-------6---6---------------|
G|------7-----7-----7---7-----7-----7---7-------7-------------|
D|--0---------------------7------------------------0----------|
A|-------------------------------------------------0----------|
E|-------------------------------------------------0----------|

e|-------------------------------------------------------|1x
B|-----------14---------10----------12----------9--------|
G|------------x----------x-----------x----------x--------|
D|--00-0000--12-00-0000--8-00-0000--10-00-0000--7--------|
A|--00-0000-----00-0000----00-0000-----00-0000-----------|
E|--00-0000-----00-0000----00-0000-----00-0000-----------|
P.M .. ....     .. ....    .. ....     .. ....

e|-------------------------------------------------------|1x
B|-----------14---------10----------12----------6--------|
G|------------x----------x-----------x----------x--------|
D|--00-0000--12-00-0000--8-00-0000--10-00-0000--4--------|
A|--00-0000-----00-0000----00-0000-----00-0000-----------|
E|--00-0000-----00-0000----00-0000-----00-0000-----------|
P.M .. ....     .. ....    .. ....     .. ....

e|----------------------------------------------------------|
B|----------------------------------------------------------|
G|----------------------------------------------------------|
D|--00--------00------------88-88888-7-77----------------0~-|
A|--00-7-7h8--00-7-8-7-7-5--88-88888-7-77-5h7p5-4--------0~-|
E|--00--------00------------98-88888-7-77----------------0~-|














Tap to rate this tab
# A B C D E F G H I J K L M N O P Q R S T U V W X Y Z