Song name
# A B C D E F G H I J K L M N O P Q R S T U V W X Y Z

Eyes Set To Kill - Pure White Lace tab

e----------------------------------------------|
b----------------------------------------------|
g----8-8-8-8--7-7-7-7--7---7-7-7-7--6-6-6-6- 3-|  
d----9-9-9-9--9-9-9-9--x---9-9-9-9--9-9-9-9--x-|
a----------------------5---------------------5-|
E----------------------------------------------|

e-------------------------------------------------|
b-------------------------------------------------|
g----/10101010--7-7-7-7--7--7-7-7-7---6-6-6-6-----|
d----/x-x-x-x---9-9-9-9--x--9-9-9-9---9-9-9-9-----|
a----/8-8-8-8------------5------------------------|
E-------------------------------------------------|
Tap to rate this tab
 
# A B C D E F G H I J K L M N O P Q R S T U V W X Y Z