Song name
# A B C D E F G H I J K L M N O P Q R S T U V W X Y Z

Eyes Set To Kill - Liar In The Glass tab

I'm still working on the song but this is what I have:

E|------------------------------------|
B|------------------------------------|
G|---------------hp-------------------| x4
D|-0--3-2-3-5-3-232-3-33-333-2-22-222-|
A|-0----------------3-33-333-2-22-222-|
D|-0-0-0-0-0-0-0----3-33-333-2-22-222-|
pm   * * * * * *      **  **   **  **          

E|------------------|
B|------------------|
G|------------------|
D|------------------|
A|-000-000--000-000-|
D|-000-000--000-000-|
pm *** ***  *** ***                

Clean part:
I don't know the rhythm but this is what I hear

E|-1----0----3---|
B|--3----3----3--|
G|---2----2----2-|
D|---------------|
A|---------------|
D|---------------|


E|---------------------------------------------| -----|
B|---------------------------------------------|      |
G|---------------------------------------------|      |
D|---------------------------------------------|      |
A|-000--000-000-888-777-777--------------------|      |
D|-000--000-000-888-777-777--------------------|      |
pm ***  *** *** *** *** ***                           |x2 
                                                      |
E|---------------------------------------------|      |
B|---------------------------------------------|      |
G|---------------------------------------------|      |
D|----------------------------10-8-<7>---------|      |
A|-000--000-000-888-777-7-8-7------------------|      |
D|-000--000-000-888-777------------------------| -----|
pm ***  *** *** *** *** * * * *  * 

E|-------------------| -----|
B|-------------------|      |
G|---5------------2--| x3   |
D|---------8-5--23---|      |
A|-----78--------h---|      |
D|-00-0---0-0-00-----|      |
pm ** *   * * **            |
                            |
E|-------------------|      |
B|-------------------|      |
G|---5---------------|      |
D|---------8-5--2320-|      |
A|-----78--------hp--|      |
D|-00-0---0-0-00-----| -----|
pm ** *   * * **                         

You'll hear the rythm of this part
E|-----------|
B|-----------|
G|-10--12--9-|
D|-x---x---x-|
A|-8---10--7-|
D|-----------|

E|-------------------------------------|
B|-------------------------------------|
G|-------------------------------------| x4
D|----------------------------10-8-<7>-|
A|-000--000-000-888-777-7-8-7----------|
D|-000--000-000-888-777----------------|
pm ***  *** *** *** *** * * * *  * 

E|-------------------------------------|
B|-13-11-10-----13-11-10---------8-10--|
G|---------10-9----------10-9-10-------| x2
D|-------------------------------------|
A|-------------------------------------|
D|-------------------------------------|

More coming soon!
Tap to rate this tab
 
# A B C D E F G H I J K L M N O P Q R S T U V W X Y Z