Song name
# A B C D E F G H I J K L M N O P Q R S T U V W X Y Z

Eyes - Callin All Girls tab

-----------------------------------------------------------------
Callin All Girls - Eyes (INTRO)
-----------------------------------------------------------------
Tabbed by: ikjetil
Email:

Tuning: E B G D A E


e|---------------------------------------------------------------|
B|---------------------------------------------------------------|
G|----2-----------2----------------------------------------------|
D|----2-----------2----------------------------------------------|
A|----0---0-3-4-5-0----------------------------------------------|
E|-3b------------------------------------------------------------|

e|---------------------------------------------------------------|
B|---------------------------------------------------------------|
G|---------------2-----------------------------------------------|
D|-2-1-0---0-1-2-2-----------------------------------------------|
A|-------0-------0-----------------------------------------------|
E|-----------------0-3~-4~---------------------------------------|

e|---------------------------------------------------------------|
B|---------------------------------------------------------------|
G|-2-------2-7b[n]-----------------------------------------------|
D|-2-------2----------2-1-0---5-2--------------------------------|
A|-0-3-4-5-0--------0-------0-----5-3-0---5-3-0------------------|
E|--------------------------------------3-------3----------------|

e|---------------12----------------------------------------------|
B|------------------13~------------------------------------------|
G|-2---------2-------------------------2-5-7---------------------|
D|-2---------2-----------2-1-0---0-1-2-2-5-7---------------------|
A|-0-0-3-4-5-0-----------------0-------0-3-5---------------------|
E|---------------------------------------------------------------|

e|---------------------------------------------------------------|
B|---------------------------------------------------------------|
G|-2---------2--------------12-----------------------------------|
D|-2---------2-----7[n]---7[n]-----------------------------------|
A|-0-0-3-4-5-0---7[n]---7[n]-------------------------------------|
E|---------------------------------------------------------------|

e|---------------------------------------------------------------|
B|---------------------------------8---8---8---8-----------------|
G|---------------------------------7---7---7---7-----------------|
D|---2-1-0---5-2-------------------5---5---5---5-----------------|
A|-0-------0-----5-3-0---5-3-0-----------------------------------|
E|---------------------3-------3-0---0---0---0-------------------|


Tablature Legend
----------------
 h   - hammer-on
 p   - pull-off
 b   - bend
 pb  - pre-bend
 r   - bend release (if no number after the r, then release immediately)
 /\  - slide into or out of (from/to "nowhere")
 s   - legato slide
 S   - shift slide
  - natural harmonic
[n]  - artificial harmonic
n(n) - tapped harmonic
 ~   - vibrato
 tr  - trill
 T   - tap
 TP  - trem. picking
 PM  - palm muting
\n/  - tremolo bar dip; n = amount to dip
 \n  - tremolo bar down
 n/  - tremolo bar up
/n\  - tremolo bar inverted dip
 =   - hold bend; also acts as connecting device for hammers/pulls
 <>  - volume swell (louder/softer)
 x   - on rhythm slash represents muted slash
 o   - on rhythm slash represents single note slash
Tap to rate this tab
 
# A B C D E F G H I J K L M N O P Q R S T U V W X Y Z