Song name
# A B C D E F G H I J K L M N O P Q R S T U V W X Y Z

Eyesburn - Pump It tab

eyesburn
pump it
tabed by scepa


intro/whole song			
|-5-5-5---5-5-5---5-5-5---4/5-|
|-6-6-6---6-6-6---6-6-6---5/6-|
|-7-7-7---7-7-7---7-7-7---6/7-|
|-7-7-7---7-7-7---7-7-7---6/7-|
|-----------------------------|
|-----------------------------|


solo
|---------------------------------------------------------------------------------|
|---5-6--6-5--------------5-6--6-5----------5-6--6-5--------------5-6-------------|
|-7----------7-5-7-5----7----------7-5-7--7----------7-5-7-5----7-----5-5/7-5-5/7-|
|--------------------7---------------------------------------7--------------------|
|---------------------------------------------------------------------------------|
|---------------------------------------------------------------------------------|


verse(play it 2x)
|-----------------------------------------|
|-----------------------------------------|
|-----------------------------------------|
|---------------3-2-----------------------|
|-5-3---3/5-3/5-----5-3---3/5-3/5-3-3-----|
|-----5-----------------5-------------5-3-|


chorus
|---------------|
|---------------|
|---------------|
|-7--7--10-9--8-|
|-5--5--8--7--6-|
|---------------|

ending same as intro
:)
Tap to rate this tab
 
# A B C D E F G H I J K L M N O P Q R S T U V W X Y Z