Song name
# A B C D E F G H I J K L M N O P Q R S T U V W X Y Z

Eyescream - Wednesday tab

Help us improve GuitareTab! Take a short survey!
WEDNESDAY BY EYESCREAM

TABBER: JORENN DEL MUNDO
DATE: MAY 13, 2007

What's up all of you. I am sure that no one has tabbed out this solo yet, so I
will. This tab is 100% perfect, I am sure of it. I hope you enjoy!! Any comments
or Questions, email me at JORENN_08@ROCKISTA.COM

Good Luck with it, it's really hard

tuning: drop d


INTRO (LEAD PART)  (4 Times)

e------2--2------4---4----------6--6-------------------------------|
b------------------------------------------------------------------|
g--4----------6------------8---------------------------------------|
d------------------------------------------------------------------|
a------------------------------------------------------------------|
d------------------------------------------------------------------|

INTRO (RHYTYM PART) NOT DISTORTED (2 TIMES)

e---2-----4----6------------------------------------------------------|
b---2-----4----6------------------------------------------------------|
g---4-----6----8------------------------------------------------------|
d---------------------------------------------------------------------|
a---------------------------------------------------------------------|
d---------------------------------------------------------------------|

INTRO DISTORTED (RHYTYM PART) (2 TIMES)

e------------------------------------------------------------------|
b------------------------------------------------------------------|
g------------------------------------------------------------------|
d---2-2-2-2-2-----4-4-4-4-4------6-6-6-6-6-------------------------|
a---2-2-2-2-2-----4-4-4-4-4------6-6-6-6-6-------------------------|
d---2-2-2-2-2-----4-4-4-4-4------6-6-6-6-6-------------------------|

INTRO DISTORTED (LEAD PART) (2 TIMES)

e------------------------------------------------------------------|
b------------------------------------------------------------------|
g------4--3--------6--4---3--4-------4--4---5---7------------------|
d---6--------6--4------------------6-------------------------------|
a------------------------------------------------------------------|
d------------------------------------------------------------------|

VERSE

e------------------------------------------------------------------|
b------------------------------------------------------------------|
g------------------------------------------------------------------|
d---9--9--9--9--------6---6---6---6--------------------------------|
a---9--9--9--9--------6---6---6---6--------------------------------|
d---9--9--9--9--------6---6---6---6--------------------------------|

e------------------------------------------------------------------|
b------------------------------------------------------------------|
g------------------------------------------------------------------|
d---9--9--9--9--------6---6---6---6--------------------------------|
a---9--9--9--9--------6---6---6---6--------------------------------|
d---9--9--9--9--------6---6---6---6--------------------------------|

e------------------------------------------------------------------|
b------------------------------------------------------------------|
g------------------------------------------------------------------|
d---9--9--9--9--------6---6---6---6--------------------------------|
a---9--9--9--9--------6---6---6---6--------------------------------|
d---9--9--9--9--------6---6---6---6--------------------------------|

e------------------------------------------------------------------|
b------------------------------------------------------------------|
g----------------------------------------9---9---9-----------------|
d---9--9--9--9--------6---6---6---6------9---9---9-----------------|
a---9--9--9--9--------6---6---6---6------7---7---7-----------------|
d---9--9--9--9--------6---6---6---6--------------------------------|

CHORUS (2 TIMES)

e------------------------------------------------------------------|
b------------------------------------------------------------------|
g------------------------------------------------------------------|
d--2--2---4--4---6--6----------------------------------------------|
a--2--2---4--4---6--6----------------------------------------------|
d--2--2---4--4---6--6----------------------------------------------|

(REPEAT VERSE)
(REPEAT CHORUS)

(3 TIMES)


REPEAT ONLY THE VERSE AND CHORUS  (3 TIMES)
PLS RATE MY TAB...
FOR QUESTION CALL:09266835637
Related for Wednesday tab