Song name
# A B C D E F G H I J K L M N O P Q R S T U V W X Y Z

Eyescream - Maghihintay tab

Maghihintay by eyescream

TABBER: JORENN DEL MUNDO
DATE: MAY 12, 2007

What's up all of you. I am sure that no one has tabbed out this solo yet, so I
will. This tab is 100% perfect, I am sure of it. I hope you enjoy!! Any comments
or Questions, email me at JORENN_08@ROCKISTA.COM

Good Luck with it, it's really hard

Intro:  (8 TIMES)  LEAD PART

e-----------------------6----------6-------------------------------|
b-----6-----9---6---------6----------6--------6--------------------|
g------------------------------------------------------------------|
d--8----8----------8----------8----------8--------8----------------|
a------------------------------------------------------------------|
e------------------------------------------------------------------|

RHYTYM PART (INTRO)

e------------------------------------------------------------------|
b------------------------------------------------------------------|
g------------------------------------------------------------------|
d----8-------3----3----------4----4-----------6--------------------|
a----8-------3----3----------4----4-----------6--------------------|
e----6-------1----1----------2----2-----------4--------------------|

e------------------------------------------------------------------|
b------------------------------------------------------------------|
g------------------------------------------------------------------|
d----8-------3----3---------4----4------8----6---5---6-------------|
a----8-------3----3---------4----4------8----6---5---6-------------|
e----6-------1----1---------2----2------6----4---3---4-------------|


e------------------------------------------------------------------|
b------------------------------------------------------------------|
g------------------------------------------------------------------|
d----8-------3----3----------4----4-----------6--------------------|
a----8-------3----3----------4----4-----------6--------------------|
e----6-------1----1----------2----2-----------4--------------------|


e------------------------------------------------------------------|
b------------------------------------------------------------------|
g------------------------------------------------------------------|
d----8-----------3--------------4---------6-------6----------------|
a----8-----------3--------------4------------4--------4------------|
e----6-----------1--------------2----------------------------------|

VERSE 1

e----------------------8----|---------------8-----------------------|
b------9----------9--------|----9------9----------------------------|
g----------10----------10-|--------10----------10-------------------|
d---------------------------|---------------------------------------|
a---------------------------|---------------------------------------|
e---------------------------|---------------------------------------|

e----------------------8----|---------------8-----------------------|
b------9----------9--------|----9------9----------------------------|
g----------10----------10-|--------10----------10-------------------|
d---------------------------|---------------------------------------|
a---------------------------|---------------------------------------|
e---------------------------|---------------------------------------|

e----------------------8----|---------------8-----------------------|
b------9----------9--------|----9------9----------------------------|
g----------10----------10-|--------10----------10-------------------|
d---------------------------|---------------------------------------|
a---------------------------|---------------------------------------|
e---------------------------|---------------------------------------|

e----------------------8----|---------------8-----------------------|
b------9----------9--------|----9------9----------------------------|
g----------10----------10-|--------10----------10-------------------|
d---------------------------|---------------------------------------|
a---------------------------|---------------------------------------|
e---------------------------|---------------------------------------|


CHORUS

e------------------------------------------------------------------|
b------------------------------------------------------------------|
g------------------------------------------------------------------|
d-----------4----4----4----4-----6----6----6----6------------------|
a-----------4----4----4----4-----6----6----6----6------------------|
e-----------2----2----2----2-----4----4----4----4------------------|
e------------------------------------------------------------------|
b------------------------------------------------------------------|
g------------------------------------------------------------------|
d-----------4----4----4----4-----6----6----6----6------------------|
a-----------4----4----4----4-----6----6----6----6------------------|
e-----------2----2----2----2-----4----4----4----4------------------|

e------------------------------------------------------------------|
b------------------------------------------------------------------|
g------------------------------------------------------------------|
d-----------4----4----4----4-----6----6----6----6------------------|
a-----------4----4----4----4-----6----6----6----6------------------|
e-----------2----2----2----2-----4----4----4----4------------------|

e------------------------------------------------------------------|
b------------------------------------------------------------------|
g------------------------------------------------------------------|
d-----------4----4----4----4-----6----6----6----6------------------|
a-----------4----4----4----4-----6----6----6----6------------------|
e-----------2----2----2----2-----4----4----4----4------------------|

VERSE 2

e----------------------8----|---------------8-----------------------|
b------9----------9--------|----9------9----------------------------|
g----------10----------10-|--------10----------10-------------------|
d---------------------------|---------------------------------------|
a---------------------------|---------------------------------------|
e---------------------------|---------------------------------------|

e--8----------------------8----------------------------------------|
b------11-------11----------11-------11----------------------------|
g-----------12--------------------12-------------------------------|
d------------------------------------------------------------------|
a------------------------------------------------------------------|
e------------------------------------------------------------------|


e--8----------------------8----------------------------------------|
b------11-------11----------11-------11----------------------------|
g-----------12--------------------12-------------------------------|
d------------------------------------------------------------------|
a------------------------------------------------------------------|
e------------------------------------------------------------------|


e--8----------------------8----------------------------------------|
b------11-------11----------11-------11----------------------------|
g-----------12--------------------12-------------------------------|
d------------------------------------------------------------------|
a------------------------------------------------------------------|
e------------------------------------------------------------------|

e--8----------------------8----------------------------------------|
b------11-------11----------11-------11----------------------------|
g-----------12--------------------12-------------------------------|
d------------------------------------------------------------------|
a------------------------------------------------------------------|
e------------------------------------------------------------------|

REPEAT CHORUS:(SIX TIMES)


REPEAT ONLY THE  CHORUS TABS...
PLS RATE MY TAB...
FOR QUESTION CALL:09266835637
Tap to rate this tab
# A B C D E F G H I J K L M N O P Q R S T U V W X Y Z