Song name
# A B C D E F G H I J K L M N O P Q R S T U V W X Y Z

Eyeshine - Here Comes The End Again tab

-------------------------------------------------------------------------------
                 Here Comes The End Again - Eyeshine
-------------------------------------------------------------------------------
My first tab. Be nice.

Tabbed by: ocdotter

Tuning: standard

Intro:

e|---------------------------------------------------------------------------|
B|---------------------------------------------------------------------------|
G|------------------------4-4-4-4--------------------------------------------|
D|4-4-4-4-7-7-7-7-2-2-2-2-4-4-4-4--------------------------------------------|
A|4-4-4-4-7-7-7-7-2-2-2-2-2-2-2-2--------------------------------------------|
E|2-2-2-2-5-5-5-5-0-0-0-0----------------------------------------------------| X4


Chorus:

e|---------------------------------------------------------------------------|
B|---------------------------------------------------------------------------|
G|--------------------------------4-4-4-4-4-4-4-4-4-4-4-4-4-4-4-4------------|
D|4-4-4-4-4-4-4-4-7-7-7-7-7-7-7-7-4-4-4-4-4-4-4-4-4-4-4-4-4-4-4-4------------|
A|4-4-4-4-4-4-4-4-7-7-7-7-7-7-7-7-2-2-2-2-2-2-2-2-2-2-2-2-2-2-2-2------------|
E|2-2-2-2-2-2-2-2-5-5-5-5-5-5-5-5--------------------------------------------| X2


Verse pt.1:

e|---------------------------------------------------------------------------|
B|---------------------------------------------------------------------------|
G|---------------------------------------------------------------------------|
D|4~-------2~-------4~-------2~----------------------------------------------|
A|4~-------2~-------4~-------2~----------------------------------------------|
E|2~-------0~-------2~-------0~----------------------------------------------|

verse pt.2

e|2---2---0---0--------------------------------------------------------------|
B|--2---2---0---0------------------------------------------------------------|
G|---------------------------------------------------------------------------|
D|---------------------------------------------------------------------------|
A|---------------------------------------------------------------------------|
E|---------------------------------------------------------------------------| X8

Pre-Bass Solo

e|---------------------------------------------------------------------------|
B|---------------------------------------------------------------------------|
G|---------------------------------------------------------------------------|
D|---------------------------------------------------------------------------|
A|------2 X16------2 X16-----------------------------------------------------|
E|2 X16-------2 X16-------2 X8----0 X8---------------------------------------|

Bass Solo

e|---------------------------------------------------------------------------|
B|---------------------------------------------------------------------------|
G|---------------------------------------------------------------------------|
D|---------------------------------------------------------------------------|
A|--------------------------------2-2-2-2-2-2-2-2-2-2-2-2-2-2-2-2------------|
E|2-2-2-2-2-2-2-2-5-5-5-5-5-5-5-5--------------------------------------------| X2

end song on:

e|---------------------------------------------------------------------------|
B|---------------------------------------------------------------------------|
G|---------------------------------------------------------------------------|
D|4~-------------------------------------------------------------------------|
A|4~-------------------------------------------------------------------------|
E|2~-------------------------------------------------------------------------|

Song order:

Intro
Chorus
Verse pt.1
Verse pt.2
Chorus
Intro
Verse pt.1
Verse pt.2
Chorus
Verse pt.2
Pre-Bass Solo
Bass Solo
Chorus
Intro
End song on


************************************

| /   slide up
| \   slide down
| h   hammer-on
| p   pull-off
| ~   vibrato
| +   harmonic
| x   Mute note
| b   Bend
| pb  Pre-bend
| br  Bend release
| pbr Pre-bend release
| brb Bend release bend

************************************
Tap to rate this tab
# A B C D E F G H I J K L M N O P Q R S T U V W X Y Z