Song name
# A B C D E F G H I J K L M N O P Q R S T U V W X Y Z

Ez Special - Menina Bonita chords

Highlighted       Show chord diagrams
D G D G

D              G
  Quando eu te vejo
      D 
Sinto saudade
              G
Dos teus dias quentes
           D
E de tempestade.
          G
Para conseguir
         D
Fazer-te feliz
             G
Fico hoje contigo.

	[refrão]
	F                F7
	Segunda, passa o dia a correr
	Bb                             Bb7m
	Chego a Terça-feira sem a conseguir ver
	F                F7
	Quarta, há tanto para dizer
	Bb                        Bb7m
	Acordo e ainda posso ver o dia nascer
	F            F7
	Quinta, paro para pensar,
	Bb                    Bb7m
	Como seria se vivesse noutro lugar?
	F          F7       Bb 
	Menina bonita, é sexta
	Bb7m           
	E vamos vadiar

E|-----2-0-2--|-----2-0-2--|------------|-------------|
B|--3---------|--1---------|-----3-5-3--|----3-5-3----|
G|------------|------------|--4---------|--3----------|
D|------------|------------|------------|-------------|
A|------------|------------|------------|-------------|
E|------------|------------|------------|-------------|

E|-----2-0-2--|-----2-0-2--|-------3----|------3------|
B|--3---------|--1---------|-----3---3--|----3--------|
G|------------|------------|--4---------|--3----------|
D|------------|------------|------------|-------------|
A|------------|------------|------------|-------------|
E|------------|------------|------------|-------------|

D              G
Não vai levar muito
             D 
Para seres capaz
            G
De veres em mim
                 D
Mais do que um rapaz
               G
Espero que não seja 
        D
tarde demais
                G 
P'ra levar-te comigo...

	[refrão]

C        Bb
Só quero ficar
           C
Todo o meu tempo,
         Bb
Não estragar
          C
Esse momento
         Bb
Quando passas perto,
  G#         A
Tão perto de mim...

	[refrão] (2x)

D              G
  Quando eu te vejo
      D 
Sinto saudade
              G        D
Dos teus dias quentes
Tap to rate this tab
 
# A B C D E F G H I J K L M N O P Q R S T U V W X Y Z