Song name
# A B C D E F G H I J K L M N O P Q R S T U V W X Y Z

Ez Special - Sei Que Sabes Que Sim tab

Artist: EZ Special
Song: Sei Que Sabes Que Sim
Album: Alguém Como Tu (2007)


Tabbed by Coronas

    E  A  D  G  B  e

F   1  3  3  2  1  1
Am  x  0  2  2  1  0
Bb  x  1  3  3  3  1
Dº  x  5  6  4  6  x
---------------------------------------------
G   3  5  5  4  3  3
Bm  x  2  4  4  3  2
C   x  3  2  0  1  0   or   x  3  5  5  5  3
Eb  x  x  1  3  4  3   or   x  6  8  8  8  6
---------------------------------------------
A   5  7  7  6  5  5
C#m x  4  6  6  5  4
D   x  0  0  2  3  2   or   x  5  7  7  7  5
F   x  x  3  5  6  5   or   x  8  10 10 10 8
---------------------------------------------


Intro (piano riff)

play it 2x (1 for the intro, 1 during the verse)
e|--------5------5----------|--------5------5----------|
B|-----6------6------6------|-----5------5------5------|
G|--5------5------5---------|--5------5------5---------|
D|--------------------------|--------------------------|
A|--------------------------|--------------------------|
E|--------------------------|--------------------------|

e|--------6------6----------|--------4------3----------|
B|-----6------6------6------|-----6------6------6------|
G|--3------3------3---------|--5------5------5---------|
D|--------------------------|--------------------------|
A|--------------------------|--------------------------|
E|--------------------------|--------------------------|

play it another time and end the part 4 with
e|--------4------3----------|
B|-----6------6----6--------|
G|--5------5---------5------|
D|--------------------------|
A|--------------------------|
E|--------------------------|


then play the chords
Verse:
F
Deixa a volta o mundo
     Am                      Bb
Vai ser o que o tempo entender
        Dº
Nem tu tens de o dizer

So tens de o sentir

Se Sabes que sim
e que para mim
Es o mundo lá fora


Chorus:
G	   Bm
 Olha para mim
               C
Se estiveres afim
           Eb
Falamos depois

A qualquer hora

G           Bm
 Olha para mim
             C
Tudo tem um fim
            Eb
Vemo-nos depois


Verse 2:
Sei que és parte de mim
Estarás sempre aqui
Sei que não demoras
Não há nada a fazer
Nem nada a dizer
Aqui e agora

Pre-chorus:
Deixa à volta o mundo
Vai ser o que o tempo entender
Nem tu tens de o dizer
Só tens de o sentir
Se Sabes que Sim
e que para mim
És o mundo lá fora

Chorus

Chorus in A
A	C#m	D	F

keep playing it in A and then end with
e|--------5------5----------|--------4------4----------|
B|-----5------5------5------|-----5------5------5------|
G|--6------6------5---------|--6------6------6---------|
D|--------------------------|--------------------------|    play it 2x
A|--------------------------|--------------------------|
E|--------------------------|--------------------------|

e|-----------5--------------|
B|-----------5--------------|
G|-----------6--------------|
D|--------------------------|
A|--------------------------|
E|--------------------------|
Tap to rate this tab
# A B C D E F G H I J K L M N O P Q R S T U V W X Y Z