Guitaretab - guitar tabs
Song name
# A B C D E F G H I J K L M N O P Q R S T U V W X Y Z

Ezra Band - Walang Iba tab

Walang Iba
artist: Ezra band
tabbed by ferdtobats
mobile #: 09078968043
email (fb): tobatsdrive@yahoo.com
tweet tweet: siepherd
fb page: http://www.facebook.com/pages/FeRdZtObAts/155669057851704

intro: guys nagpost ako kc wala pa ako nakitang cover/tab neto na gumagamit ng hammer sa 
bass string...pakinggan nyo mabuti meron yan... :)
sa mga may tanong email or send lang kau ng msg

hi pala dun sa beybi ko :) na may ninja skill XD
[ Tab from: http://www.guitaretab.com/e/ezra-band/292248.html ]
intro:
eb|-----------------------|--------------------------------|
Bb|--------t--------3---t-|------------t--------3----------|
Gb|------0-a-------2-2--a-|----------0-a----0h2---2--------|
Db|----0---p------------p-|--------0---p-------------------|
Ab|-----------------------|----0h2---0----2----------------|
Eb|-3---------0h3---------|-0h3----------------------------|

eb|--------------------|-------------------|
Bb|------t--------3-t--|------3------------|
Gb|----0-a--0-0h2---a--|--2-2-------0h2----|
Db|------p----------p--|--0-----0h2-----2--|
Ab|-3-------3-3--------|-------------------|
Eb|--------------------|-------------------|
Related for Walang Iba tab
Walang Iba chords by Ezra Band