Song name
# A B C D E F G H I J K L M N O P Q R S T U V W X Y Z

Ezra Furman And The Harpoons - God Is A Middle Aged Woman tab

Intro:
   C                             G
e|-------0-----------3-1-0-------------3-----1-----3-1-0-------|
B|-----1---1-------1-------3-1-0---------0-----0---------3-1-0-|
G|-----------0-----------------------0-----0-----0-------------|
D|---2-----------2---------------------------------------------|
A|-3-----------3-------------------2---------------------------|
E|-------------------------------3-----------------------------|

F                         C           G
------1-------------------------0-----------3-|
----1---1-------1---3-1-------1---1---------0-|
--2-------2-1h2---2-----2-----------0-----0-0-|
3---------------------------2---------------0-|
--------------------------3-------------2---2-|
--------------------------------------3-----3-|
Tap to rate this tab
 
# A B C D E F G H I J K L M N O P Q R S T U V W X Y Z