Song name
# A B C D E F G H I J K L M N O P Q R S T U V W X Y Z

Ezra Furman And The Harpoons - I Killed Myself But I Didnt Die chords

Highlighted       Show chord diagrams
Bass Intro:
G|-------------------------------------|
D|-------------------------------------|
A|-------------------------------------|
E|-00000000-99999999-55555555-88888888-|

Intro Riff (guitar):
E|---------------------------------------------------------------|
B|---------------------------------------------------------------|
G|---------------------------------------------------------------|
D|----9--6--4----9--9-6-6-4-4------9--6--4-----------------------|
A|-7-----------7----------------7------------7---7-7-7-7/13/6----|
E|---------------------------------------------------------------|


I killed myself but I didn't die
she crossed her heart and stuck a needle in her eye
she promised me she'll never leave me alone
she doesn't sleep she only calls me on the phone all night

Intro Riff (x1)

E                    C#            
I went to school but I didn't learn

A                      C
I touch the fire but I didn't feel the burn

E                    C#           
somehow I got desensitized to the world

A                      C
 I hate pop music and I hate the Duke of Earl

Intro Riff (x1)

E                   C#
I killed myself but I didn't die

A                   C
now in the hospital recovering I lie

E                   C#
none of the visitors can look me in the eye

A                   C
they say "how are ya?" but they don't apologize, oh no


Intro Riff (x1) 

 
and my mom came in she was having trouble trying to speak

she could see that her boy was some sort of freak

E|-----------------|
B|-----------------|
G|-/13-13-13-13----|
D|-----------------|
A|-----------------|
E|-----------------|

E                   C#
I killed myself but I didn't die

A                       C
now she's my baby she's the apple of my eye

E                C#
she only wants a sensitive guy

A                     C
and I've been in and out of my mind three times

Intro Riff (x1)

thats just the way, the way I always was
I go to therapy but I don't take the drugs
I try and really look my life in the face
I think I'm learning that there's no way to escape, oh no

Intro Riff (x1) 

and the worst part is that I didn't even really care
it's just to be or not to be and either way I'm only barely there

E|-----------------|
B|-----------------|
G|-/13-13-13-13----|
D|-----------------|
A|-----------------|
E|-----------------|


E                   C#
I killed myself but I'm still around

A                       C
I think the living dead will like me better now

E                    C#
I'm gonna socialize I'm gonna go out more

A                     C
I'll be so beautiful with nothing at the core, oh no

Outro Riff(x4):

E|-----------------------------|
B|-----------------------------|
G|-12(x8)-14(x8)-13(x8)-12(x8)-|
D|-----------------------------|
A|-----------------------------|
E|-----------------------------|

E chord at end
Tap to rate this tab
 
# A B C D E F G H I J K L M N O P Q R S T U V W X Y Z