Song name
# A B C D E F G H I J K L M N O P Q R S T U V W X Y Z

F Minus - World Still Turns tab

Help us improve GuitareTab! Take a short survey!
-------------------------------------------------------------------------------
			     WORLD STILL TURNS - F-Minus
-------------------------------------------------------------------------------
Tabbed by: redrain87
Email: sat_sic@yahoo.com

Tuning: Standard - (E A D G B E) - 'World Still Turns'

Intro + First Verse:

e|---------------------| 8x
B|---------------------|
G|-----------7-7-7-----|
D|-9-9-7-7-9-7-7-7-----|
A|-9-9-7-7-9-5-5-5-----|
E|-7-7-5-5-7-----------|

Chorus:

e|--------------------|
B|--------------------|
G|--------------------|
D|-2-2-2-2-5-5-5-5----|
A|-2-2-2-2-5-5-5-5----|
E|-0-0-0-0-3-3-3-3----|


Verse 2:

e|---------------------| 8x
B|---------------------|
G|-----------7-7-7-----|
D|-9-9-7-7-9-7-7-7-----|
A|-9-9-7-7-9-5-5-5-----|
E|-7-7-5-5-7-----------|

Chorus Again:

e|-----------------|-----------------|-----------------|-----------------|
B|-----------------|-----------------|-----------------|-----------------|
G|-----------------|-----------7-7-7-|-----------7-7-7-|-----------------|
D|-2-2-2-2-5-5-5-5-|-9-9-7-7-9-7-7-7-|-9-9-7-7-9-7-7-7-|-2-2-2-2-5-5-5-5-|
A|-2-2-2-2-5-5-5-5-|-9-9-7-7-9-5-5-5-|-9-9-7-7-9-5-5-5-|-2-2-2-2-5-5-5-5-|
E|-0-0-0-0-3-3-3-3-|-7-7-5-5-7-------|-7-7-5-5-7-------|-0-0-0-0-3-3-3-3-|


Outro:

e|---------------------| 4x
B|---------------------|
G|-----------7-7-7-----|
D|-9-9-7-7-9-7-7-7-----|
A|-9-9-7-7-9-5-5-5-----|
E|-7-7-5-5-7-----------|
Related for World Still Turns tab