Song name
# A B C D E F G H I J K L M N O P Q R S T U V W X Y Z

F - Fever tab

Into

    A		  Fm		 Bm		 E
E|-----------5-------------2--|-------------7---------------|
B|-----5-------------2--------|------7-----------12--12\5---|
G|--------6-------------2-----|---------7--------13--13\6---|
D|--7-------------4-----------|--9---------------14--14\7---|
A|----------------------------|------------------14--14\7---|
E|----------------------------|-----------------------------|


    A		  Fm		 Bm		 E
E|-----------5-------------2--|-------------7---------------|
B|-----5-------------2--------|------7-----------12--12\5---|
G|--------6-------------2-----|---------7--------13--13\6---|
D|--7-------------4-----------|--9---------------14--14\7---|
A|----------------------------|------------------14--14\7---|
E|----------------------------|-----------------------------|

Verse 1


    A		  Fm		 Bm		 E
E|-----------5-------------2--|-------------7---------------| x8
B|-----5-------------2--------|------7-----------12--12\5---|
G|--------6-------------2-----|---------7--------13--13\6---|
D|--7-------------4-----------|--9---------------14--14\7---|
A|----------------------------|------------------14--14\7---|
E|----------------------------|-----------------------------|

Last time only one E chord and no slide


Chorus



E|--------------------------|--------------------------|
B|--------------------------|--------------------------|
G|--6--6--6--6--6--6--6--6--|--2--2--2--2--2--2--2--2--|
D|--7--7--7--7--7--7--7--7--|--4--4--4--4--4--4--4--4--|
A|--7--7--7--7--7--7--7--7--|--4--4--4--4--4--4--4--9--|
E|--5--5--5--5--5--5--5--5--|--2--2--2--2--2--2--2--2--|


E|--------------------------|-----------------------------|
B|--------------------------|-----------------------------|
G|--8--8--8--8--8--8--8--8--|--8--11--11--11--11--13--13--|
D|--9--9--9--9--9--9--9--9--|--9--12--12--12--12--14--14--|
A|--9--9--9--9--9--9--9--9--|--9--12--12--12--12--14--14--|
E|--7--7--7--7--7--7--7--7--|--7--10--10--10--10--12--12--|


E|--------------------------|--------------------------|
B|--------------------------|--------------------------|
G|--6--6--6--6--6--6--6--6--|--2--2--2--2--2--2--2--2--|
D|--7--7--7--7--7--7--7--7--|--4--4--4--4--4--4--4--4--|
A|--7--7--7--7--7--7--7--7--|--4--4--4--4--4--4--4--9--|
E|--5--5--5--5--5--5--5--5--|--2--2--2--2--2--2--2--2--|


E|--------------------------|-----------------------------|
B|--------------------------|-----------------------------|
G|--8--8--8--8--8--8--8--8--|-----11--11--11--11--13--13--|
D|--9--9--9--9--9--9--9--9--|-----12--12--12--12--14--14--|
A|--9--9--9--9--9--9--9--9--|-----12--12--12--12--14--14--|
E|--7--7--7--7--7--7--7--7--|-----10--10--10--10--12--12--|



Verse 2


    A		  Fm		 Bm		 E
E|-----------5-------------2--|-------------7---------------| x8
B|-----5-------------2--------|------7-----------12--12\5---|
G|--------6-------------2-----|---------7--------13--13\6---|
D|--7-------------4-----------|--9---------------14--14\7---|
A|----------------------------|------------------14--14\7---|
E|----------------------------|-----------------------------|

Last time only one E chord and no slide


Chorus


E|--------------------------|--------------------------|
B|--------------------------|--------------------------|
G|--6--6--6--6--6--6--6--6--|--2--2--2--2--2--2--2--2--|
D|--7--7--7--7--7--7--7--7--|--4--4--4--4--4--4--4--4--|
A|--7--7--7--7--7--7--7--7--|--4--4--4--4--4--4--4--9--|
E|--5--5--5--5--5--5--5--5--|--2--2--2--2--2--2--2--2--|


E|--------------------------|-----------------------------|
B|--------------------------|-----------------------------|
G|--8--8--8--8--8--8--8--8--|--8--11--11--11--11--13--13--|
D|--9--9--9--9--9--9--9--9--|--9--12--12--12--12--14--14--|
A|--9--9--9--9--9--9--9--9--|--9--12--12--12--12--14--14--|
E|--7--7--7--7--7--7--7--7--|--7--10--10--10--10--12--12--|


E|--------------------------|--------------------------|
B|--------------------------|--------------------------|
G|--6--6--6--6--6--6--6--6--|--2--2--2--2--2--2--2--2--|
D|--7--7--7--7--7--7--7--7--|--4--4--4--4--4--4--4--4--|
A|--7--7--7--7--7--7--7--7--|--4--4--4--4--4--4--4--9--|
E|--5--5--5--5--5--5--5--5--|--2--2--2--2--2--2--2--2--|


E|--------------------------|-----------------------------|
B|--------------------------|-----------------------------|
G|--8--8--8--8--8--8--8--8--|-----11--11--11--11--13--13--|
D|--9--9--9--9--9--9--9--9--|-----12--12--12--12--14--14--|
A|--9--9--9--9--9--9--9--9--|-----12--12--12--12--14--14--|
E|--7--7--7--7--7--7--7--7--|-----10--10--10--10--12--12--|




Verse 3

    A		  Fm		 Bm		 E
E|-----------5-------------2--|-------------7---------------| x4
B|-----5-------------2--------|------7-----------12--12\5---|
G|--------6-------------2-----|---------7--------13--13\6---|
D|--7-------------4-----------|--9---------------14--14\7---|
A|----------------------------|------------------14--14\7---|
E|----------------------------|-----------------------------|



Last time only one E chord and no slide


chorus


E|--------------------------|--------------------------|
B|--------------------------|--------------------------|
G|--6--6--6--6--6--6--6--6--|--2--2--2--2--2--2--2--2--|
D|--7--7--7--7--7--7--7--7--|--4--4--4--4--4--4--4--4--|
A|--7--7--7--7--7--7--7--7--|--4--4--4--4--4--4--4--9--|
E|--5--5--5--5--5--5--5--5--|--2--2--2--2--2--2--2--2--|


E|--------------------------|-----------------------------|
B|--------------------------|-----------------------------|
G|--8--8--8--8--8--8--8--8--|--8--11--11--11--11--13--13--|
D|--9--9--9--9--9--9--9--9--|--9--12--12--12--12--14--14--|
A|--9--9--9--9--9--9--9--9--|--9--12--12--12--12--14--14--|
E|--7--7--7--7--7--7--7--7--|--7--10--10--10--10--12--12--|



E|--------------------------|--------------------------|
B|--------------------------|--------------------------|
G|--6--6--6--6--6--6--6--6--|--2--2--2--2--2--2--2--2--|
D|--7--7--7--7--7--7--7--7--|--4--4--4--4--4--4--4--4--|
A|--7--7--7--7--7--7--7--7--|--4--4--4--4--4--4--4--9--|
E|--5--5--5--5--5--5--5--5--|--2--2--2--2--2--2--2--2--|


E|--------------------------|-----------------------------|
B|--------------------------|-----------------------------|
G|--8--8--8--8--8--8--8--8--|--8--11--11--11--11--13--13--|
D|--9--9--9--9--9--9--9--9--|--9--12--12--12--12--14--14--|
A|--9--9--9--9--9--9--9--9--|--9--12--12--12--12--14--14--|
E|--7--7--7--7--7--7--7--7--|--7--10--10--10--10--12--12--|


E|--------------------------|--------------------------|
B|--------------------------|--------------------------|
G|--6--6--6--6--6--6--6--6--|--2--2--2--2--2--2--2--2--|
D|--7--7--7--7--7--7--7--7--|--4--4--4--4--4--4--4--4--|
A|--7--7--7--7--7--7--7--7--|--4--4--4--4--4--4--4--9--|
E|--5--5--5--5--5--5--5--5--|--2--2--2--2--2--2--2--2--|


E|--------------------------|-----------------------------|
B|--------------------------|-----------------------------|
G|--8--8--8--8--8--8--8--8--|--8--11--11--11--11--13--13--|
D|--9--9--9--9--9--9--9--9--|--9--12--12--12--12--14--14--|
A|--9--9--9--9--9--9--9--9--|--9--12--12--12--12--14--14--|
E|--7--7--7--7--7--7--7--7--|--7--10--10--10--10--12--12--|


E|--------------------------|--------------------------|
B|--------------------------|--------------------------|
G|--6--6--6--6--6--6--6--6--|--2--2--2--2--2--2--2--2--|
D|--7--7--7--7--7--7--7--7--|--4--4--4--4--4--4--4--4--|
A|--7--7--7--7--7--7--7--7--|--4--4--4--4--4--4--4--9--|
E|--5--5--5--5--5--5--5--5--|--2--2--2--2--2--2--2--2--|


E|--------------------------|-----------------------------|
B|--------------------------|-----------------------------|
G|--8--8--8--8--8--8--8--8--|-----11--11--11--11--13--13--|
D|--9--9--9--9--9--9--9--9--|-----12--12--12--12--14--14--|
A|--9--9--9--9--9--9--9--9--|-----12--12--12--12--14--14--|
E|--7--7--7--7--7--7--7--7--|-----10--10--10--10--12--12--|




Outro

E|-----------5--|--5--|
B|-----5--------|--5--|
G|--------6-----|--6--|
D|--7-----------|--7--|
A|--------------|--7--|
E|--------------|--5--|
Tap to rate this tab
 
# A B C D E F G H I J K L M N O P Q R S T U V W X Y Z