Song name
# A B C D E F G H I J K L M N O P Q R S T U V W X Y Z

Faber Drive - Again Acoustic tab

This is my first tab i have ever made. I learned it by ear so im not 100% sure its right 
it sounds good enough. Enjoy =]


E--------------------------------------------------|
B----------------7/9-7-6-7-9-7-6-------------------|
G--8-6-8-9^--6--------------------9^--6------------|
D--------------------------------------------------|
A--------------------------------------------------|
E--------------------------------------------------|


E--------------------------------------------------|
B--7-9-7-10-7-11--12-11-10-12-11-10-12-11-10-------|
G--------------------------------------------------|
D--------------------------------------------------|
A--------------------------------------------------|
E--------------------------------------------------|


E--------------------------------------------------|
B--12-11-12-11-12-11-10-12-11-10-12-11-10-9-9-8----|
G-----------------------------------------------9^-|
D--------------------------------------------------|
A--------------------------------------------------|
E--------------------------------------------------|


E--------------------------------------------------|
B-----7/9--4-5--4-5-4--4-5-4--2/-------------------|
G--6-----------------------------------------------|
D--------------------------------------------------|
A--------------------------------------------------|
E--------------------------------------------------|
Tap to rate this tab
# A B C D E F G H I J K L M N O P Q R S T U V W X Y Z