Song name
# A B C D E F G H I J K L M N O P Q R S T U V W X Y Z

Faber Drive - Tongue Tied tab

Help us improve GuitareTab! Take a short survey!
Tabbed by: tonydo91
Email: tonydo91@yahoo.com

This is my first attempt at a tab. 5 bucks says its not perfect.
So please bear with me. The song is in standard tuning.
notes: All of the "0's" on the B and e string are completely optional.
       I am a novice at the guitar, about 6-7 months worth of playing.
       Dont expect this to be perfect...

Piano Intro

e|--7-----------|
B|---7----------|
G|-----9-8-9----|
D|----9-9-9-----|
A|--------------|
E|--------------|


Pre-Verse/Verse

e|----0----0----0----0----0----0----|
B|----0----0----0----0----0----0----|
G|----9----4----6----x----x----4----|
D|----9----4----6----6----7----4----|
A|----7----2----4----6----7----2----|
E|-------------------4----5---------|


Chorus

e|----0----0----0----0----0----|
B|----0----0----0----0----0----|
G|----x----x----x----x----4----|
D|----2----6----7----7----4----|
A|----2----6----7----7----2----|
E|----0----4----5----5---------|


Verse


Chorus


Electric Part

e|--------4-4-4-4---------2-2-2-2--|-5-5-5-5-4-4-4-4-5-5-5-5-7-7-7-7-|
B|--5-5-5-----------4-4-4----------|--5-5-5-5-5-5-5-5-5-5-5-5-5-5-5-5|
G|---------------------------------|---------------------------------|
D|---------------------------------|---------------------------------|
A|---------------------------------|---------------------------------|
E|---------------------------------|---------------------------------|


Outro

e|----0----0----0----0----|
B|----0----0----0----0----|
G|----9----4----6----2----|
D|----9----4----6----2----|
A|----7----2----4----0----|
E|------------------------|


End On

e|--0--|
B|--0--|
G|--4--|
D|--4--|
A|--2--|
E|-----|


x= mute string
Related for Tongue Tied tab