Song name
# A B C D E F G H I J K L M N O P Q R S T U V W X Y Z

Faber Drive - Killin Me tab

Ok... so this is my very first tab so go easy lol.

Key:
t= tremolo
*= pinch harmonic
h= hamer-on
p= pull-off
b= bend
r= release
#= palm muted
/= slide up
\= slide down
              |-----------------------------Agian 1x-----------------------|

Again!              x3
e-----------|---------------|----------------------------------------------|
B-----------|---------------|--------------------14-14-14------------------|
G-----------|---------8-8-8-|-/15-15-15p13-13-13---------13-13-13h15-15*---|
D------/12\-|---8-8-8-8-8-8-|----------------------------------------------|
A------/12\-|---8-8-8-6-6-6-|----------------------------------------------|
E------/12\-|---6-6-6-6-6-6-|----------------------------------------------|
                  # #   # #
Then

e---------------------------------------------------------------------------|
B---------------------------------------------------------------------------|
G--22t-20t-19t-17t-20t-19t-17t(hold for a bit)\15-17b19r17-15h17-17/19------|
D---------------------------------------------------------------------------|
A---------------------------------------------------------------------------|
E---------------------------------------------------------------------------|

e---------------------------------------------------------------------------|
B---17h20/22b24r23----------------------------------------------------------|
G---------------------------------------------------------------------------|
D---------------------------------------------------------------------------|
A---------------------------------------------------------------------------|
E---------------------------------------------------------------------------|
                   She takes me to the edge...

this can also be played as lead guitar and also the outtro

leave comment
thx K.C
Tap to rate this tab
 
# A B C D E F G H I J K L M N O P Q R S T U V W X Y Z