Song name
# A B C D E F G H I J K L M N O P Q R S T U V W X Y Z

Faber Drive - When Im With You tab

My first tab,hope its okay ;)

/= slide up
\= slide down

E||------------------|------------------|------------------|
B||-----3-------3----|------------------|-----3-------3----|
G||---4---4---4---4--|-2--0-2-2/4-4\2-0-|---4---4---4---4--|
D||-5-------5--------|------------------|-5-------5--------|
A||------------------|------------------|------------------|
E||------------------|------------------|------------------|

E||------------------|-3----------------|------------------|
B||------------------|-3----------------|------------------|
G||----0-2-2/4-4\2-0-|-0----------------|------------------|
D||------------------|-0----------------|------------------|
A||-3----------------|-2----------------|------------------|
E||------------------|-3----------------|------------------|
Tap to rate this tab
 
# A B C D E F G H I J K L M N O P Q R S T U V W X Y Z