Song name
# A B C D E F G H I J K L M N O P Q R S T U V W X Y Z

Faber Drive - By Your Side tab

-----------------------------------------------------------------------------
			               BY YOUR SIDE - Faber Drive
-----------------------------------------------------------------------------
Tabbed by: Betty Zhang
Email: betty-zhang-@live.com

Tuning: Half Step Down (eb,Bb,Gb,Db,Ab,Eb)

~ means let ring

eb|--------------|-----------|------------|------------|------------|
Bb|-------12~----|-----10~---|------8~----|------7~----|------3~----|
Gb|---0--0--0--0-|--0-0--0-0-|--0-0---0-0-|--0-0---0-0-|--0-0---0-0-|
Db|--------------|-----------|------------|------------|------------|
Ab|-10-10----10--|-9-9----9--|-7-7-----7--|-5-5-----5--|-3-3-----3--|
Eb|--------------|-----------|------------|------------|------------|

eb|------------|------------|-------------|
Bb|------3~----|------3~----|-5~----7~----|repeat this over and over
Gb|--0-0---0-0-|--0-0---0-0-|---0-0---0-0-|during the intro and verses
Db|------------|-0-0-----0--|----0-----0--|
Ab|-3-3-----3--|------------|-------------|
Eb|------------|------------|-------------|


Tap to rate this tab
 
# A B C D E F G H I J K L M N O P Q R S T U V W X Y Z