Song name
# A B C D E F G H I J K L M N O P Q R S T U V W X Y Z

Faber Drive - Our Last Goodbye tab

Intro

e---------------------------|
B---------------------------|
G--2-2---------5-5-5--------| (3x)
D--2-2--3-3-3--5-5-5--5-5-5-|
A--0-0--3-3-3--3-3-3--5-5-5-|
E-------1-1-1---------3-3-3-|

e--------------------------|
B--------------------------|
G--2-2---------------------|
D--2-2--3-3-3--5-5-5-5-5-5-|
A--0-0--3-3-3--5-5-5-5-5-5-|
E-------1-1-1--3-3-3-3-3-3-|

Im still tryin to get the rest but if anyone esle gets it put it on here
Tap to rate this tab
# A B C D E F G H I J K L M N O P Q R S T U V W X Y Z