Faber Drive - You And I Tonight tab

----------------------------------------------------------------------------
		    You and I Tonight - Faber Drive
----------------------------------------------------------------------------
Tabbed by: Noah T.
Email: sk8zzaman@hotmail.com
Tuning: Standard

Guitar 1

(Lead)
e|----------------------------------------------------------------------|
B|----------------------------------------------------------------------|
G|----------------------------------------------------------------------|
D|----5/7-----5----2----2---/3-~-~-~-~----------------------------------|
A|----------------------------------------------------------------------|
E|----------------------------------------------------------------------|

Guitar 2 - Repeat Till' Chorus

(Rythym)
e|----------------------------------------------------------------------|
B|------------1---------------------1----------------------1------------|
G|----------------------------------------------------------------------|
D|---2--3--2-----3--2--3------3--------3-----3-------3--------3-----3---|
A|-------------------------3-----3--------3-------1-----1--------1------|
E|----------------------------------------------------------------------|

Lyrics:

Tonight a candle lights the room,
Tonight it's only me and you,
Your skin like gravity is pulling every part of me,
I fall, you and I collide.


What if I stay forever?
What if there's no goodbye?
Frozen for a moment here in time,
Yeah!
If you tell me the sky is falling,
Or say that the the stars collide,
The only thing that matters in my life,
Is you and I tonight


Our eyes closed the candle burns away,
But I know the fire still remains.
This love is all we need.
We fit together perfectly,
I fall, you and I collide.


What if I stay forever?
What if there's no goodbye?
Frozen for a moment here in time,
Yeah!
If you tell me the sky is falling,
Or say that the the stars collide,
The only thing that matters in my life,
Is you and I tonight


I wanna see this through
I wanna give it all to you


Tonight a candle lights the room
Tonight, it's only me and you, oh


What if I stay forever?
What if there's no goodbye?
Frozen for a moment here in time,
Yeah!
If you tell me the sky is falling,
Or say that the the stars collide,
The only thing that matters in my life,
Is you and I tonight
Tell me the sky, forever
Just you and I tonight

The End
Tap to rate this tab
 
# A B C D E F G H I J K L M N O P Q R S T U V W X Y Z