Song name
# A B C D E F G H I J K L M N O P Q R S T U V W X Y Z

Faber Drive - You And I Tonight tab

You And I Tonight - Faber Drive


Chords Used:
F - 133211
C - x32010 / x355xx
D - xx0232 / x577xx
Am - x02210 / 577655
A# - 688766 / x133xx


Intro:
Guitar1
|-----------------------------------------------------------------------|
|---------1---------------1---------------1----------------1------------|
|----0---------0-----0--------0-----3--------3------3---------3---------|(2x)
|-3----3----3-----2---2---2-----3----3---3------3----3---3--------------|
|-----------------------------------------------------------------------|
|-----------------------------------------------------------------------|

Guitar2
|--------------------------------------------------------|
|--------------------------------------------------------|
|--------------------------------------------------------| (2x)
|-5s7--5--2--2h3-----------------------------------------|
|--------------------------------------------------------|
|--------------------------------------------------------|



Verse1:
|-----------------------------------------------------------------------|
|---------1---------------1---------------1----------------1------------|
|----0---------0-----0--------0-----3--------3------3---------3---------|(3x)
|-3----3----3-----2---2---2-----3----3---3------3----3---3--------------|
|-----------------------------------------------------------------------|
|-----------------------------------------------------------------------|
Tonight a candle lights the room,
Tonight it's only me and you,
Your skin, like gravity, Is pulling every part of me,



Refrain:
|-------------------------------------------------------------------|
|---------1---------------1---------------1-----------------1-------|
|----0---------0----0---------0----0----------0------0---------0----| 
|-0----0----0-------------------------------------------------------|
|-----------------3----3----3----1----1----1------1----1----1-------|
|-------------------------------------------------------------------|
I fall, you and I collide 



Chorus:
F             C 
What if I stay forever?
Am                 A#
What if there's no goodbye?
F                   C         Am    A#
Frozen for a moment here in time,Yeah,
        F                    C
If you tell me the sky is falling,
      Am                 A#
Or say that the stars collide,
     F                C              Am
The only thing that matters in my life,
    A#
Is You and I tonight.



Guitar1
|-----------------------------------------------------------------------|
|---------1---------------1---------------1----------------1------------|
|----0---------0-----0--------0-----3--------3------3---------3---------| 
|-3----3----3-----2---2---2-----3----3---3------3----3---3--------------|
|-----------------------------------------------------------------------|
|-----------------------------------------------------------------------|

Guitar2
|--------------------------------------------------------|
|-8s10--8--5--5h6----------------------------------------|
|--------------------------------------------------------| 
|--------------------------------------------------------|
|--------------------------------------------------------|
|--------------------------------------------------------|




Verse2:
|---------------------------------------------------------------------|
|---------1---------------1---------------1----------------1----------|
|----0---------0-----0--------0-----3--------3------3---------3-------| (3x)
|-3----3----3-----2---2---2-----3----3---3------3----3---3------------|
|---------------------------------------------------------------------|
|---------------------------------------------------------------------|
Our eyes close the candle burns away,
But I know, the fire still remains.
This love is all we need, 
We fit together perfectly,




Refrain:
|-------------------------------------------------------------------|
|---------1---------------1---------------1-----------------1-------|
|----0---------0----0---------0----0----------0------0---------0----| 
|-0----0----0-------------------------------------------------------|
|-----------------3----3----3----1----1----1------1----1----1-------|
|-------------------------------------------------------------------|
I fall, you and I collide.




Chorus:
F             C 
What if I stay forever?
Am                A#
What if there's no goodbye?
F                    C         Am    A#
Frozen for a moment here in time,Yeah,
        F                    C
If you tell me the sky is falling,
      Am                 A#
Or say that the stars collide,
     F                C             Am
The only thing that matters in my life,
    A#
Is you and I tonight.




Bridge:

A#  D  C

A#  D       C              A#
    I wanna see this through
        
    D       C              A#
    I wanna give it all to you
        
(still working on the guitar solo...)




|---------------------------------------------------------------------|
|---------1---------------1---------------1----------------1----------|
|----0---------0-----0--------0-----3--------3------3---------3-------| 
|-3----3----3-----2---2---2-----3----3---3------3----3---3------------|
|---------------------------------------------------------------------|
|---------------------------------------------------------------------|

|---------------------------------------------------------------------|
|---------1---------------1---------------1----------------1----------|
|----0---------0-----0--------0-----3--------3------3---------3-------| (2x)
|-3----3----3-----2---2---2-----3----3---3------3----3---3------------|
|---------------------------------------------------------------------|
|---------------------------------------------------------------------|
Tonight a candle lights the room
Tonight, it's only me and you, oh



Chorus:
F             C 
What if I stay forever?
Am                A#
What if there's no goodbye?
F                    C        Am     A#
Frozen for a moment here in time,Yeah,
        F                     C
If you tell me the sky is falling,  
    Am                   A#
Or say that the stars collide,
     F               C               Am
The only thing that matters in my life,
    A#
Is you and I tonight.
 F                 C     Am
(Tell me you'll stay) Forever
     A#
Just You and I Tonight
 F                 C     Am
(Tell me you'll stay) Forever
     A#
Just You and I Tonight


Outro:
Guitar1
|---------------------------------------------------------------------------|
|---------1---------------1---------------1----------------1----------------|
|----0---------0-----0--------0-----3--------3------3---------3-------------|(2x)
|-3----3----3-----2---2---2-----3----3---3------3----3---3------------------|
|---------------------------------------------------------------------------|
|---------------------------------------------------------------------------|

Guitar2
|--------------------------------------------------------|
|--------------------------------------------------------|
|--------------------------------------------------------| (2x)
|-5s7--5--2--2h3-----------------------------------------|
|--------------------------------------------------------|
|--------------------------------------------------------|




another tab has been created..syempre inspired...hahaha...
hope you enjoy playing this song.. :)

add me up on facebook...
http://www.facebook.com/cantkeepasecret
Tap to rate this tab
# A B C D E F G H I J K L M N O P Q R S T U V W X Y Z