Song name
# A B C D E F G H I J K L M N O P Q R S T U V W X Y Z

Faber - 24 Story Love Afair tab

Faber - 24  Story Love Afair
by: james@thelostwoods.com

http://www.faberband.com

Standard Tuning

Intro

e-------------------------|
g-------------------------|
b-4-4-4-4-4-4-------------|
D-4-4-4-4-4-4-2-2-2-2-2-2-|  x2
A-2-2-2-2-2-2-2-2-2-2-2-2-|
E-------------0-0-0-0-0-0-|


When I met you...
         pm
e-------------------------------------------------|
g-------------------------------------------------|
b-4-4-4-4-4-4-------------------------------------|
D-4-4-4-4-4-4-6-6-6-6-6-6-4-4-4-4-4-4-2-2-2-2-2-2-|   x2
A-2-2-2-2-2-2-6-6-6-6-6-6-4-4-4-4-4-4-2-2-2-2-2-2-|
E-------------4-4-4-4-4-4-2-2-2-2-2-2-0-0-0-0-0-0-|


look out, look out...
e-------------------------------------------------|
g-------------------------------------------------|
b-4-4-4-4-4-4-------------4-4-4-4-4-4-------------|
D-4-4-4-4-4-4-2-2-2-2-2-2-4-4-4-4-4-4-4-4-4-4-4-4-|   x1
A-2-2-2-2-2-2-2-2-2-2-2-2-2-2-2-2-2-2-4-4-4-4-4-4-|
E-------------0-0-0-0-0-0-------------2-2-2-2-2-2-|

Chorus
e-------------------------------------------------------------|
g-------------------------------------------------------------|
b-4-4-4-4-4-4-------------------------------------------------|
D-4-4-4-4-4-4-2-2-2-2-2-2-6-6-6-6-6-6-4-4-4-4-4-4-2-2-2-2-2-2-|  x1
A-2-2-2-2-2-2-2-2-2-2-2-2-6-6-6-6-6-6-4-4-4-4-4-4-2-2-2-2-2-2-|
E-------------0-0-0-0-0-0-4-4-4-4-4-4-2-2-2-2-2-2-0-0-0-0-0-0-|

e-----------------------------------------------------------------|
g-----------------------------------------------------------------|
b-4-4-4-4-4-4-----------------------------------------------------|
D-4-4-4-4-4-4-2-2-2-2-2-2-6-6-6-6-6-6-4-4-4-4-4-4-2-2-2-2-2-2-4---|  x1
A-2-2-2-2-2-2-2-2-2-2-2-2-6-6-6-6-6-6-4-4-4-4-4-4-2-2-2-2-2-2-4---|
E-------------0-0-0-0-0-0-4-4-4-4-4-4-2-2-2-2-2-2-0-0-0-0-0-0-2---|

-repeat-

Solo Part
e-------------------------------------------------|
g-------------------------------------------------|
b-6-6-6-6-6-6-9-9-9-9-9-9-------------------------|
D-6-6-6-6-6-6-9-9-9-9-9-9-9-9-9-9-9-9-4-4-4-4-4-4-|  x1
A-4-4-4-4-4-4-7-7-7-7-7-7-9-9-9-9-9-9-4-4-4-4-4-4-|
E-------------------------7-7-7-7-7-7-2-2-2-2-2-2-|

e---------------------------------------|
g---------------------------------------|
b-6-6-6-6-6-6-9-9-9-9-9-9---------------|
D-6-6-6-6-6-6-9-9-9-9-9-9-5-5-5-5-5-5-4-|  x1
A-4-4-4-4-4-4-7-7-7-7-7-7-5-5-5-5-5-5-4-|
E-------------------------3-3-3-3-3-3-2-|

-repeat s'more-
Tap to rate this tab
 
# A B C D E F G H I J K L M N O P Q R S T U V W X Y Z