Song name
# A B C D E F G H I J K L M N O P Q R S T U V W X Y Z

Fabolous - Cant Let You Go tab

-------------------------------------------------------------------------------
			     fabolous- Cant let you go
-------------------------------------------------------------------------------
Tabbed by:islamislight
Email: bayarea6fifty@yahoo.com

Tuning: Half-Step Down

e|-1------0h1p0---0-1-1--1/3--3/5--3--1--0------------------------------|
B|-3-----3------3------------------------3-------3-----1----1h3p1---1-3-|
G|-2----2--------------------------------2-----2---2---2---2------2-----|
D|---------------------------------------0---0---------0--0-------------|
A|----------------------------------------------------------------------|
E|----------------------------------------------------------------------|

i felt as if the corrected version was a bit off so i tuned it a half step 

down and played in D-minor it sounds a lot better play along with the song 

to the rhythm because the 2g 3b 0eh1p0 is kind of like a wanna be sweep pick 

sort of same with the other hp set on the b.


************************************

| /   slide up
| \   slide down
| h   hammer-on
| p   pull-off
| ~   vibrato
| +   harmonic
| x   Mute note
| b   Bend
| pb  Pre-bend
| br  Bend release
| pbr Pre-bend release
| brb Bend release bend

************************************
Tap to rate this tab
# A B C D E F G H I J K L M N O P Q R S T U V W X Y Z