Song name
# A B C D E F G H I J K L M N O P Q R S T U V W X Y Z

Fabolous - You Be Killin Em tab

-------------------------------------------------------------------------------
			     You Be Killin Em - FAbolous
-------------------------------------------------------------------------------
Tabbed by:
Email:

Tuning: standard
easier with capo on 2

e|-----------------------------------------------------------------------------|
B|-----------------------------------------------------------------------------|
G|-----------------------------------------------------------------------------|
D|-----------------------------------------------------------------------------|
A|--------------------------5--5--5--5--4--4--4--2-----------------------------|
E|-2--2--2--2-4-5--5--5--5-----------------------------------------------------|

e|-----------------------------------------------------------------------------|
B|-----------------------------------------------------------------------------|
G|-----------------------------------------------------------------------------|
D|-----------------------------------------------------------------------------|
A|------------------------------5-4-----5-4-----5-4-----5-4--------------------|
E|--5--2--2--2--2-4-5--5--5--5------5-2-----5-2-----5-2-----5-4-2--------------|
 Repeat
************************************

| /   slide up
| \   slide down
| h   hammer-on
| p   pull-off
| ~   vibrato
| +   harmonic
| x   Mute note
| b   Bend
| pb  Pre-bend
| br  Bend release
| pbr Pre-bend release
| brb Bend release bend

************************************
Tap to rate this tab
 
# A B C D E F G H I J K L M N O P Q R S T U V W X Y Z