Fabolous - You Be Killin Em tab

Author/Artist: Fabolous
Title: You Be Killin' Em
Album: There is No Competition 2 EP
Transcribed by: Redick4ulous

Tuning: Standard (EADGBe)


The song is fairly simple, its one main riff that changes just
a little bit when its leading up to the chorus

Main Riff

E ------------------------------------------------------------|
B ------------------------------------------------------------|
G ------------------------------------------------------------|
D -----------------------------------------------2-4----------|
A ---------------------------5--5--5--5--4--4--4--------------|
E ---2--2--2--2-4-5--5--5--5----------------------------------|


Riff leading up to chorus

E ------------------------------------------------------------|
B ------------------------------------------------------------|
G ------------------------------------------------------------|
D ------------------------------------------------------------|
A ----------------------------5-4-----5-4-----5-4-----5-4-----|
E ---2--2--2--2-4-5--5--5--5------5-2-----5-2-----5-2-----5-2-|
Tap to rate this tab
 
# A B C D E F G H I J K L M N O P Q R S T U V W X Y Z