Song name
# A B C D E F G H I J K L M N O P Q R S T U V W X Y Z

Fabrizio De Andre - Nellacqua Della Chiara Fontana tab

-------------------------------------------------------------------------------
              NELL'ACQUA DELLA CHIARA FONTANA - Fabrizio De André
-------------------------------------------------------------------------------
Tabbed by: Carlo Cianetti
E-mail: c.cianetti99@gmail.com

~ Intro

e|---------------------------------------------------------------------------|
B|---------------------------------------------------------------------------|
G|-12--12-12-12-12-13--13-14--14-14-14-14-15--15-14--14-14-14-14-13----------|
D|--------------------------------------------------------------------14-----|
A|---------------------------------------------------------------------------|
E|---------------------------------------------------------------------------|

e|---------------------------------------------------------------------------|
B|---------------------------------------------------------------------------|
G|-14--14-13------13-14------------------------------------------------------|
D|------------14-------------------------------------------------------------|
A|---------------------------------------------------------------------------|
E|---------------------------------------------------------------------------|


C                   E7
Nell'acqua della chiara fontana

Am                 C7
Lei tutta nuda si bagnava

F                     E
Quando un soffio di tramontana

Am           E            Am          (G)
Le sue vesti in cielo portava


~ Repeat the same chords


Dal folto dei capelli mi chiese

Per rivestirla di cercare

I rami di cento mimose

E ramo con ramo intrecciare



Volli coprire le sue spalle

Tutte di petali di rosa

Ma il suo seno era cosi' minuto

Che fu sufficiente una rosa



Cercai ancora nella vigna

perche' a meta' non fosse spoglia

ma i suoi fianchi eran cosi' minuti

che fu sufficiente una foglia



Le braccia lei mi tese allora

Per ringraziarmi un po' stupita

Io la presi con tanto ardore

Che lei fu di nuovo svestita



Il gioco diverti' la graziosa

Che molto spesso alla fontana

Torno' a bagnarsi pregando Dio

Per un soffio di tramontana


~ Repeat the Intro
Tap to rate this tab
# A B C D E F G H I J K L M N O P Q R S T U V W X Y Z