Song name
# A B C D E F G H I J K L M N O P Q R S T U V W X Y Z

Face To Face - Out Of Focus tab

Face To Face Out Of Focus 

intro:
|----------------|
|----------------|
|------14-----7--|
|---7--14--5--7--|
|---7--12--5--5--|
|---5------3-----|

Intro part 2 & chorus
|---------------------------------------------|
|---------------------------------------------|
|--14----12------11-----12----------------7---|
|--14-x8-12-x16--11-x1--12-x1--12---------7---|
|--12----10------9------10-----12-x1--or--5---|
|------------------------------10-------------|

Verse
|------------------|
|------------------|
|------------------|
|---7--4--7--5-----|
|---7--4--7--5-----|
|---5--2--5--3-----|

pre chorus
|------|
|------|
|---7--|
|---7--|
|---5--|
|------|

bridge
|------------|
|------------|
|---------7--|
|---7--5--7--|
|---7--5--5--|
|---5--3-----|
Tap to rate this tab
# A B C D E F G H I J K L M N O P Q R S T U V W X Y Z