Song name
# A B C D E F G H I J K L M N O P Q R S T U V W X Y Z

Face To Face - Bill Of Goods tab

-------------------------------------------------------------------------------
			     BILL OF GOODS - FACE TO FACE
-------------------------------------------------------------------------------
Tabbed by:CHRIS
Email:YOUNGCHRIS03@HOTMAIL.COM

Tuning:E (STANDARD)

	VERSE
e|--------------------------|
B|--------------------------|
G|---7----------------------|
D|---7----5----7----5-------|
A|---5----5----7----5-------|
E|--------3----5----3-------|

	PRE CHORUS
e|--------------------------------------|
B|--------------------------------------|
G|---7---------7---------7--------------|
D|---7----5----7----5----7----5----7----|
A|---5----5----5----5----5----5----7----|
E|--------3---------3---------3----5----|

	CHORUS
e|-------------------------|
B|-------------------------|
G|---7-------------7-------|
D|---7----4---5----7-------|
A|---5----4---5----5-------|
E|--------2---3------------|

	POST CHORUS
e|----------------------------------------|
B|----------------------------------------|
G|----------------------------------------|
D|--2-2-2-4-2-2-5-2-2-4-2-5-2-4-----------|
A|--0-0-0-0-0-0-0-0-0-0-0-0-0-0-----------|
E|----------------------------------------|

	SOLO
e|-------------------------|
B|-------------------------|
G|---14----10---12----9----| X2
D|-------------------------|
A|---12----9----10----7----|
E|-------------------------|

e|------------------------|
B|------------------------|
G|---7----6---7---9-------| X 4
D|------------------------|
A|---5----4---5---7-------|
E|------------------------|


VERSE X 4
PRECHORUS X 1
CHORUS X 2
POST CHORUS X 4
VERSE X 2
PRE
CHORUS X 2
POST X 4
SOLO X 1
POST X 1
CHORUS X 4
POST X 4
VERSE X 4
CHOURS X 1

Try to convince you that you can't live without one
Hey look around man everybody's got one
So hurry up get your dollar bills together
They're going to try and get you something even better

You're not so sure but you heard it's great
You get there first so you won't be late
Everybody else will have to wait in line

I overestimated you
You knew that I probably would
We're so predictable
We've been sold a bill of goods

You want a choice want to make your own decisions
You want to make up the rules and the provisions

And everything is going to be so great
When you're the latest keeper at the gate
Everybody else will have to wait in line
Tap to rate this tab
# A B C D E F G H I J K L M N O P Q R S T U V W X Y Z