Song name
# A B C D E F G H I J K L M N O P Q R S T U V W X Y Z

Face To Face - Im Trying tab

I'm Trying - Face to Face
album - don't turn away
tabbed by mE - galex46@gmail.com


tuning: standard
= - hold note

 
Intro
e-----5--------5--------| x10
B-----------------------|
G--------7-------7------|
D-----------7------7----|
A-----------------------|
E-----------------------|


chorus riff
e--------------------------------------------------------------------|x5
B--------------------------------------------------------------------|
G----7--7--7-7-7-9--9-9--9-9-9-9-7--7--7-7-7-------------------------|
D----7--7--7-7-7-9--9-9--9-9-9-9-7--7--7-7-7-5--5-5--5-5-5-5---------|
A----5--5--5-5-5-7--7-7--7-7-7-7-5--5--5-5-5-5--5-5--5-5-5-5---------|
E--------------------------------------------3--3-3--3-3-3-3---------|


verse 1
        four year old at play....
e--------------------------------------------------------------------|
B--------------------------------------------------------------------|
G----7--7--7-7-7--7--7-7--7-7-7-7------------------------------------|
D----7--7--7-7-7--7--7-7--7-7-7-7-5--5--5-5-5--5--5-5--5-5-5-5-------|
A----5--5--5-5-5--5--5-5--5-5-5-5-5--5--5-5-5--5--5-5--5-5-5-5-------|
E---------------------------------3--3--3-3-3--3--3-3--3-3-3-3-------\
                                                                      \
                                                                       x2
                                                                      /
e--------------------------------------------------------------------/
B--------------------------------------------------------------------|
G--------------------------------------------------------------------|
D----7--7--7-7-7--7--7-7--7-7-7-7-5--5--5-5-5--5--5-5--5-5-5-5-------|
A----7--7--7-7-7--7--7-7--7-7-7-7-5--5--5-5-5--5--5-5--5-5-5-5-------|
E----9--9--9-9-9--9--9-9--9-9-9-9-3--3--3-3-3--3--3-3--3-3-3-3-------|



chorus  
                                 can't have it.....
e--------------------------------------------------------------------|x2
B--------------------------------------------------------------------|
G----7--7--7-7-7-9--9-9--9-9-9-9-7--7--7-7-7-------------------------|
D----7--7--7-7-7-9--9-9--9-9-9-9-7--7--7-7-7-5--5-5--5-5-5-5---------|
A----5--5--5-5-5-7--7-7--7-7-7-7-5--5--5-5-5-5--5-5--5-5-5-5---------|
E--------------------------------------------3--3-3--3-3-3-3---------|



verse 2
        laying in the street....
e--------------------------------------------------------------------|
B--------------------------------------------------------------------|
G----7--7--7-7-7--7--7-7--7-7-7-7------------------------------------|
D----7--7--7-7-7--7--7-7--7-7-7-7-5--5--5-5-5--5--5-5--5-5-5-5-------|
A----5--5--5-5-5--5--5-5--5-5-5-5-5--5--5-5-5--5--5-5--5-5-5-5-------|
E---------------------------------3--3--3-3-3--3--3-3--3-3-3-3-------\
                                                                      \
                                                                       x2
                                                                      /
e--------------------------------------------------------------------/
B--------------------------------------------------------------------|
G--------------------------------------------------------------------|
D----7--7--7-7-7--7--7-7--7-7-7-7-5--5--5-5-5--5--5-5--5-5-5-5-------|
A----7--7--7-7-7--7--7-7--7-7-7-7-5--5--5-5-5--5--5-5--5-5-5-5-------|
E----9--9--9-9-9--9--9-9--9-9-9-9-3--3--3-3-3--3--3-3--3-3-3-3-------|


chorus  
			         can't have it.....
e--------------------------------------------------------------------|x2
B--------------------------------------------------------------------|
G----7--7--7-7-7-9--9-9--9-9-9-9-7--7--7-7-7-------------------------|
D----7--7--7-7-7-9--9-9--9-9-9-9-7--7--7-7-7-5--5-5--5-5-5-5---------|
A----5--5--5-5-5-7--7-7--7-7-7-7-5--5--5-5-5-5--5-5--5-5-5-5---------|
E--------------------------------------------3--3-3--3-3-3-3---------|


Intro riff
          i'm trying....
e-----5--------5--------|x8
B-----------------------|
G--------7-------7------|
D-----------7------7----|
A-----------------------|
E-----------------------|


bridge
                                                           so you can..
e---------------------------------------------------------------------------|
B---------------------------------------------------------------------------|
G--7--7--7-7-7-9--9-9--9-9-9-9-7--7--7-7-7----------------------------------|
D--7--7--7-7-7-9--9-9--9-9-9-9-7--7--7-7-7-5--5-5--5-5-5-5-5========--------|
A--5--5--5-5-5-7--7-7--7-7-7-7-5--5--5-5-5-5--5-5--5-5-5-5-5========--------|
E------------------------------------------3--3-3--3-3-3-3-3========--------|


     there's no reason for me to stay...
e------------------------------------------------------------------|
B------------------------------------------------------------------|
G----7--7--7-7-7--7--7-7--7-7-7-7-9--9--9-9-9--9--9-9--9-9-9-9-----|
D----7--7--7-7-7--7--7-7--7-7-7-7-9--9--9-9-9--9--9-9--9-9-9-9-----|
A----5--5--5-5-5--5--5-5--5-5-5-5-7--7--7-7-7--7--7-7--7-7-7-7-----|
E------------------------------------------------------------------|


e-----------------------------------------------------------------|x2
B-----------------------------------------------------------------|goes
G----------------7--7-7--7-7-7-7----------------------------------|right
D----5--5--5-5-5-7--7-7--7-7-7-7-7--7--7-7-7-7--7-7--7-7-7-7------|into
A----5--5--5-5-5-5--5-5--5-5-5-5-7--7--7-7-7-7--7-7--7-7-7-7------|chorus
E----3--3--3-3-3-----------------5--5--5-5-5-5--5-5--5-5-5-5------|



chorus 
			         can't have it....
e--------------------------------------------------------------------|x3
B--------------------------------------------------------------------|
G----7--7--7-7-7-9--9-9--9-9-9-9-7--7--7-7-7-------------------------|
D----7--7--7-7-7-9--9-9--9-9-9-9-7--7--7-7-7-5--5-5--5-5-5-5---------|
A----5--5--5-5-5-7--7-7--7-7-7-7-5--5--5-5-5-5--5-5--5-5-5-5---------|
E--------------------------------------------3--3-3--3-3-3-3---------|



outro
          i'm trying....
e-----5--------5--------|x16
B-----------------------|
G--------7-------7------|
D-----------7------7----|
A-----------------------|
E-----------------------|



... my mind
e-------------------------|
B-------------------------|
G----------7=========-----|
D----------7=========-----|
A----------5=========-----|
E-------------------------|


the end


Lyrics:

Four year old at play, shot and killed today, never even had a chance.
Seventeen and high, threw away his life, has a gun to feel like he's a man.

Can't have it any other way.

Laying in the street, asking for a drink, doesn't have a place to live.
Pregnant at thirteen, still can hear the screams, something that she never will forget.

Can't have it any other way.

I'm trying to open my mind.

So you can keep your faith,
'cause i'll just walk away.
There's no reason for me to stay.

I'm trying to open my mind. x2

I'm trying to make up my mind.
Tap to rate this tab
 
# A B C D E F G H I J K L M N O P Q R S T U V W X Y Z