Song name
# A B C D E F G H I J K L M N O P Q R S T U V W X Y Z

Face To Face - All For Nothing tab

-----------------------------------------------------------------------------
                             All For Nothing - Face To Face
-----------------------------------------------------------------------------
Tabbed by: BlenderBR
E-mail: fabiosignori.zero@hotmail.com

#I'm pretty sure that it's 100% right#

Tuning:

Intro 1st Guitar 
e|--------------------------------------------------------|
B|--------------------------------------------------------|
G|--4444444-----------------------------------------------|
D|--4444444--22222222--6666666--2222222-------------------|
A|--2222222--22222222--6666666--2222222-------------------|
E|-----------00000000--4444444--0000000-------------------|

Intro 2nd Guitar 
e|--------------------------------------------------------|
B|--------------------------------------------------------|
G|----9999999999------------------------------------------|
D|----xxxxxxxxxx---all-the-intro--------------------------|
A|----7777777777------------------------------------------|
E|--------------------------------------------------------|

B
I have given up the demons
      Em
I've made up a hundred reasons
      G#m                              Em
I have turned my back on everything I knew
        B
I have justified my actions
      Em
Been denying satisfaction
         G#m                            Em
I believe tonight I've pulled away the truth

C#m
All to be with you  --------------------|
E                                       |          e|--------------------|
All to be with you                      |          B|--------------------|
C#m                                     |          G|------9999999999999-|
All to be with you                      |          D|------xxxxxxxxxxxxx-|
E                                       > 2 Guitar A|------7777777777777-|
All to be with you                      |          E|--------------------|
                                        |             all the chorus
All to be with you----------------------|

1st Guitar
e|--------------------------------------------------------|
B|--------------------------------------------------------|
G|--4444444-----------------------------------------------|
D|--4444444--22222222--6666666--2222222-------------------|
A|--2222222--22222222--6666666--2222222-------------------|
E|-----------00000000--4444444--0000000-------------------|

2nd Guitar 
e|--------------------------------------------------------|
B|--------------------------------------------------------|
G|----999999999999999--77-66-44444444---------------------|
D|----xxxxxxxxxxxxxxx--xx-xx-xxxxxxxx---------------------|
A|----777777777777777--55-44-22222222---------------------|
E|--------------------------------------------------------|

B
I have lost the inhibitions
    Em
I have felt a deep contrition
    G#m                                 Em
And I've realized there's still so much to do
    B
I was lost inside my own lies
    Em
I felt victim and I thought I
    G#m                                 Em
Would never find the strength to do what I must do

C#m
All to be with you  --------------------|
E                                       |           e|--------------------|
All to be with you                      |           B|--------------------|
C#m                                     |           G|------9999999999999-|
All to be with you                      |           D|------xxxxxxxxxxxxx-|
E                                       > 2 Guitar  A|------7777777777777-|
All to be with you                      |           E|--------------------|
                                        |
All to be with you----------------------|

1st Guitar
e|--------------------------------------------------------|
B|--------------------------------------------------------|
G|--4444444-----------------------------------------------|
D|--4444444--22222222--6666666--2222222-------------------|
A|--2222222--22222222--6666666--2222222-------------------|
E|-----------00000000--4444444--0000000-------------------|

2nd Guitar 
e|--------------------------------------------------------|
B|--------------------------------------------------------|     
G|----999999999999999--77-66-44444444---------------------|     
D|----xxxxxxxxxxxxxxx--xx-xx-xxxxxxxx---------------------| 
A|----777777777777777--55-44-22222222---------------------|     
E|--------------------------------------------------------|     

1st Guitar
e|--------------------------------------------------------|
B|--------------------------------------------------------|
G|--4444444-----------------------------------------------|
D|--4444444--22222222--6666666--2222222-------------------|
A|--2222222--22222222--6666666--2222222-------------------|
E|-----------00000000--4444444--0000000-------------------|

2nd Guitar 
Solo : ?

  B                             
I've been inside hell and out of
  Em
I've done things I'm less than proud of
  G#m                           Em
I have only ever tried to get to you
  B
I've lost everything and still have
  Em
Never given up until I either die
  G#m                           Em
Or I will make it back to you

C#m
All to be with you  --------------------|
E                                       |            e|---------------------|
All to be with you                      |            B|---------------------|
C#m                                     |            G|-----9999999999999---|
All to be with you                      |            D|-----xxxxxxxxxxxxx---|
E                                       > 2 Guitar   A|-----7777777777777---|
All to be with you                      |            E|---------------------|
                                        |                All the chorus
All to be with you----------------------|

1st Guitar
e|--------------------------------------------------------|
B|--------------------------------------------------------|
G|--4444444-----------------------------------------------|
D|--4444444--22222222--6666666--2222222-------------------|
A|--2222222--22222222--6666666--2222222-------------------|
E|-----------00000000--4444444--0000000-------------------|

2nd Guitar 
e|--------------------------------------------------------|
B|--------------------------------------------------------|
G|----999999999999999--77-66-44444444---------------------|
D|----xxxxxxxxxxxxxxx--xx-xx-xxxxxxxx---------------------|
A|----777777777777777--55-44-22222222---------------------|
E|--------------------------------------------------------|

Cont
e|--------------------------------------------------------|
B|--------------------------------------------------------|
G|----9999999999-11-999-----------------------------------|
D|----xxxxxxxxxx-x--xxx-----------------------------------|
A|----7777777777-9--777-----------------------------------|
E|--------------------------------------------------------|
Tap to rate this tab
# A B C D E F G H I J K L M N O P Q R S T U V W X Y Z