Song name
# A B C D E F G H I J K L M N O P Q R S T U V W X Y Z

Face Tomorrow - Prop And Stay tab

PROP & STAY - GUITAR PART MARC

INTRO

(this is how i play it live, may be slightly different than on cd...)

after Aart did the intro 4x;

light distortion
E -----------------------------------------------------------------------------------------------|
B ----------10----------------10-----------------------------------------------------------------|
G --7---9---0----11---7---9---0----11-(bend this one up and back right before the drums in)------|
D --0---0-------------0---0----------------------------------------------------------------------|
A ----------7----9------------7----9-------------------------------------------------------------|
E --7---9-------------7---9----------------------------------------------------------------------|


E -----------------------------------------------------------------------------------------------|
B ----------10-----------------------------------------------------------------------------------|
G --7---9---0----11---7---6---2------------------------------------------------------------------|
D --0---0-------------0---0---2---4--------------------------------------------------------------|
A ----------7----9------------0---5--------------------------------------------------------------|
E --7---9-------------7---5-------3--------------------------------------------------------------|


heavy distortion
E -----------------------------------------------------------------------------------------------|
B -----------------------------------------------------------------------------------------------|
G --7------7-----6-------------------------------------------------------------------------------|
D --0---------0--0-------------------------------------------------------------------------------|
A -----------------------------------------------------------------------------------------------|
E --7--7---------5-------------------------------------------------------------------------------|


clean
E -----------------------------------------------------------0-----------------------------------|
B --------------------------------------10---10----------7-----7---------------------------------|
G ------7---7----------6----6-------------------0----------------0-------------------------------|
D ------------0---------------0---------------------9-9----9-------------------------------------|
A ----------------------------------7-7----7------7----------------------------------------------|
E --7-7---0-----7-5-5----5------5-0--------------------------------0-----------------------------|

E -----------------------------------------------------------------------------------------------|
B -----------------------------------------------------------------------------------------------|
G ------7---7----------6----6-----------2---2----------------------------------------------------|
D ------------0---------------0-------2-------2--------4---5\4-----------------------------------|
A ----------------------------------0-----0-------------------5----------------------------------|
E --7-7---0-----7-5-5----5------5-0--------------0--3-3---3-----3--------------------------------|

E -----------------------------------------------------------0-----------------------------------|
B --------------------------------------10---10----------7-----7---------------------------------|
G ------7---7----------9----9-------------------0----------------0-------------------------------|
D ------------0---------------0---------------------9-9----9-------------------------------------|
A ----------------------------------7-7----7------7----------------------------------------------|
E --7-7---0-----7/9-9----9------9-0--------------------------------0-----------------------------|


E -----------------------------------------------------------------------------------------------|
B -----------------------------------------------------------------------------------------------|
G ------7---7----------6----6-------2------------------------------------------------------------|
D ------------0---------------0-----2------------------------------------------------------------|
A ----------------------------------0------------------------------------------------------------|
E --7-7---0-----7-5-5----5------5-0--------------------------------------------------------------|


heavy distortion
E -----------------------------------------------------------------------------------------------|
B ----------10-----------------------------------------------------------------------------------|
G --7---9---0----11---7---6---2-------16---14---9---11---7---6---2-------------------------------|
D --0---0-------------0---0---2---4----------------------0---0---2---4---------------------------|
A ----------7----9------------0---5---14---12---7---9------------0---5---------------------------|
E --7---9-------------7---5-------3----0-----------------7---5-------3---------------------------|


E -----------------------------------------------------------------------------------------------|
B -----------------------------------------------------------------------------------------------|
G --16---14---9---11---16---18---9---7-6---------------------------------------------------------|
D -----------------------------------------------------------------------------------------------|
A --14---12---7---9----14---16---7---5-5---------------------------------------------------------|
E -----------------------------------------------------------------------------------------------|

light distortion
E -----------------------------------------------------------------------------------------------|
B -----------------------------------------------------------------------------------------------|
G -----0-----------------------------------------------------------------------------------------|
D -4-----4---------------------------------------------------------------------------------------|
A -2-2-----0-------------------------------------------------------------------------------------|
E -----------------------------------------------------------------------------------------------|
this part 4x

E -----------------------------------------------------------------------------------------------|
B -----------------------------------------------------------------------------------------------|
G ------0---------0---------0------------0-------------------------------------------------------|
D -4------4---------4---------4--------4---------------------------------------------------------|
A -2-2------2------------------------------------------------------------------------------------|
E ------------5-5-----5-3-3------3-5-5-----5-----------------------------------------------------|

last time it's
E -----------------------------------------------------------------------------------------------|
B -----------------------------------------------------------------------------------------------|
G ------0---------0---------0------7-9-----------------------------------------------------------|
D -4------4---------4---------4---------slide pick over neck-------------------------------------|
A -2-2------2----------------------5-7-----------------------------------------------------------|
E ------------5-5-----5-3-3------3---------------------------------------------------------------|

heavy distortion
E -----------------------------------------------------------------------------------------------|
B ----------10-----------------------------------------------------------------------------------|
G --7---9---0----11---7---6---2------------------------------------------------------------------|
D --0---0-------------0---0---2------4---------------4---------------4---------------4-----------|
A ----------7----9------------0--2-2---0-5-5-4-0-------0-5-5-4-0-------0-5-5-4-0-------0-5-5-4-0-|
E --7---9-------------7---5----------------------5-5-------------3-3-------------5-5-------------|

E -----------------------------------------------------------------------------------------------|
B -----------------------------------------------------------------------------------------------|
G --------------------------------------------------7--9-16--14--9--11--16--18--9--7-6--7--------|
D ------4---------------4---------------4-----------------------------------------------0--------|
A --2-2---0-5-5-4-0-------0-5-5-4-0-------0-5-5-4-0-5--7-14--12--7--9---14--16--7--5-5-----------|
E ------------------5-5-------------3-3-------------------------------------------------7--------|
Tap to rate this tab
# A B C D E F G H I J K L M N O P Q R S T U V W X Y Z