Guitaretab - guitar tabs
Song name
# A B C D E F G H I J K L M N O P Q R S T U V W X Y Z

Faces - Ohh La La tab

The Great Thing about this song is that you can play both parts seperately and they 
great, or you can play them with a second guitar player. The introduction could be played 
by the verse, or you could have your friend play the introduction continuosly while you play the verse bit.
[ Tab from: http://www.guitaretab.com/f/faces/38741.html ]
Introduction:
--x--10---10-10-10---10-10-10---10-10-10--------x--10---10-10-10---|
--7--7----7--7--7----7--7--7----7--7--7---------8--8----8--8--8----|
--7--7----7--7--7----7--7--7----7--7--7---------7--7----7--7--7----|
--7--7----7--7--7----7--7--7----7--7--7---------9--9----9--9--9----|
--5--5----5--5--5----5--5--5----5--5--5---------7--7----7--7--7----|
--x--x----x--x--x----x--x--x----x--x--x---------x--x----x--x--x----|

--10-10-10-10-------------|
--8--8--8--8----  <-------|Really pronounce the last two chords in this bit
--7--7--7--7--------------|         (If you listen to the song you'll here it)
--9--9--9--9--------------|
--7--7--7--7--------------|
--x--x--x--x--------------|

What I Call The Verse
----------------------------------------------------------|
----------------------------------------------------------|
----------------------------------------------------------|
----------------------------------------------------------|
----------------------------------------------------------|
----------------------------------------------------------|
Related for Ohh La La tab
Ohh La La chords by Faces