Song name
# A B C D E F G H I J K L M N O P Q R S T U V W X Y Z

Fact - A Fact Of Life tab

*******STILL EDITING*******Come back when Still editing thingy is gone!!!

First time doing a tab and since Fact doesn't have that much tabs I might aswell put my 
cents in for them since they are a really great band and its ashame their not up there 
the big ones popularity wise:/
Anways I think I pretty much got it figured out, farely simple song so beginners can 
learn it aswell. At least you'll surprise your friends that you know a japanese song :p

Tuning - Drop D

 Intro Riff (basically the chorus)

|-----------------------------------|-----------------------------------|
|-----------------------------------|-----------------------------------|
|------------------7-7-7-7-7-7-7-7--|------------------7-7-7-7----------|
|--8-8-8-8-7-7-7-7-7-7-7-7-7-7-7-7--|--8-8-8-8-7-7-7-7-7-7-7-7-3-3-3-3--| x2
|--8-8-8-8-7-7-7-7-5-5-5-5-5-5-5-5--|--8-8-8-8-7-7-7-7-5-5-5-5-3-3-3-3--|
|--8-8-8-8-7-7-7-7------------------|--8-8-8-8-7-7-7-7---------3-3-3-3--|


 Verse 1
(Guitar 1)
|--------------------------------------|
|--------------------------------------|
|--------------------------------------|
|------10-7---7------------------------| x8
|--8-8------8---8-8--------------------|
|--------------------------------------|

(Guitar 2) ...Comes in 2nd time
|-------------------------------------------------|
|-------------------------------------------------|
|-------------------------------------------------|
|-------------------------------------------------| x7
|--8-10-8-10-8--8-10-8-10-8-----------------------|
|-------------------------------------------------|
   pm.......    pm.......


 Chorus
|-----------------------------------|-----------------------------------|
|-----------------------------------|-----------------------------------|
|------------------7-7-7-7-7-7-7-7--|------------------7-7-7-7----------|
|--8-8-8-8-7-7-7-7-7-7-7-7-7-7-7-7--|--8-8-8-8-7-7-7-7-7-7-7-7-3-3-3-3--| x2
|--8-8-8-8-7-7-7-7-5-5-5-5-5-5-5-5--|--8-8-8-8-7-7-7-7-5-5-5-5-3-3-3-3--|
|--8-8-8-8-7-7-7-7------------------|--8-8-8-8-7-7-7-7---------3-3-3-3--|


 Verse 2
(Guitar 1)
|--------------------------------------|
|--------------------------------------|
|--------------------------------------|
|------10-7---7------------------------| x10
|--8-8------8---8-8--------------------|
|--------------------------------------|

(Guitar 2) ...Comes in 3rd time
|-------------------------------------------------|
|-------------------------------------------------|
|-------------------------------------------------|
|-------------------------------------------------| x8
|--8-10-8-10-8--8-10-8-10-8-----------------------|
|-------------------------------------------------|
  pm.......    pm.......


 Chorus
|-----------------------------------|-----------------------------------|
|-----------------------------------|-----------------------------------|
|------------------7-7-7-7-7-7-7-7--|------------------7-7-7-7----------|
|--8-8-8-8-7-7-7-7-7-7-7-7-7-7-7-7--|--8-8-8-8-7-7-7-7-7-7-7-7-3-3-3-3--| x4
|--8-8-8-8-7-7-7-7-5-5-5-5-5-5-5-5--|--8-8-8-8-7-7-7-7-5-5-5-5-3-3-3-3--|
|--8-8-8-8-7-7-7-7------------------|--8-8-8-8-7-7-7-7---------3-3-3-3--|


 Chill part~
|---------------------------------------|
|---------------------------------------|
|--10-10~--10-10~--10/12-10-10~---5-5~--|
|--10-10~--10-10~--10/12-10-10~---5-3~--| x2
|---------------------------------------|
|---------------------------------------|


 Build up (Clean/coil tapped)
|-------------------------|--------------------------|
|-------------------------|--------------------------|
|-------------------------|--------------------------|
|-------10-7------7-----7-|--------------------------| x4
|--8-10------8------8-8---|--------------------------|
|--------------10---------|--------------------------|

(Use Reverb for effect)
|-----------------------------------|-----------------------------------|
|-----------------------------------|-----------------------------------|
|------------------7-7-7-7-7-7-7-7--|------------------7-7-7-7----------|
|--8-8-8-8-7-7-7-7-7-7-7-7-7-7-7-7--|--8-8-8-8-7-7-7-7-7-7-7-7-3-3-3-3--| x2
|--8-8-8-8-7-7-7-7-5-5-5-5-5-5-5-5--|--8-8-8-8-7-7-7-7-5-5-5-5-3-3-3-3--|
|--8-8-8-8-7-7-7-7------------------|--8-8-8-8-7-7-7-7---------3-3-3-3--|


 Chorus (Play to the end)
|-----------------------------------|-----------------------------------|
|-----------------------------------|-----------------------------------|
|------------------7-7-7-7-7-7-7-7--|------------------7-7-7-7----------|
|--8-8-8-8-7-7-7-7-7-7-7-7-7-7-7-7--|--8-8-8-8-7-7-7-7-7-7-7-7-3-3-3-3--|
|--8-8-8-8-7-7-7-7-5-5-5-5-5-5-5-5--|--8-8-8-8-7-7-7-7-5-5-5-5-3-3-3-3--|
|--8-8-8-8-7-7-7-7------------------|--8-8-8-8-7-7-7-7---------3-3-3-3--|


(Cool effect part/Use some flange??)
|-----------------------------------------------------------------------|
|-----------------------------------------------------------------------|
|-----------------------------------------------------------------------|
|-----------------------------------------------------------------------|
|-----------------------------------------------------------------------|
|-----------------------------------------------------------------------|
Tap to rate this tab
# A B C D E F G H I J K L M N O P Q R S T U V W X Y Z