Song name
# A B C D E F G H I J K L M N O P Q R S T U V W X Y Z

Faction - Skate Harassment tab

Skate Harassament
as made famous by 
The Faction

very easy song i learned this song by ear

for any questions comments or corrections please email me at
sageredstar@gmail.com


|---------------------|--------------------------|
|---------------------|--------------------------|
|-2--3--3--5--5--7--7-|--2--2--3--3--5--5--7--7--|
|-2--3--3--5--5--7--7-|--2--2--3--3--5--5--7--7--| x4
|-0--1--1--3--3--5--5-|--0--0--1--1--3--3--5--5--|
|---------------------|--------------------------|

|----------------------|----------------------|
|----------------------|----------------------|
|--7--7--5--5--3--3--2-|--7--7--5--5--3--3--2-|
|--7--7--5--5--3--3--2-|--7--7--5--5--3--3--2-| x2
|--5--5--3--3--1--1--0-|--5--5--3--3--1--1--0-|
|----------------------|----------------------|
Tap to rate this tab
 
# A B C D E F G H I J K L M N O P Q R S T U V W X Y Z