Song name
# A B C D E F G H I J K L M N O P Q R S T U V W X Y Z

Faction - Tenebrae tab

(The Faction - Tenebrae)

E-------------------------------------------|
B-------------------------------------------|
G-------------------------------------------|
D-------------------------------3-3-2-2-----|
A-------2-3-2----2-3-2----2-3-2---------3-2-|
E---0-0------0-0------0-0-------------------|

Repeat a couple times...

E--------------------------------------------------|
B--------------------------------------------------|
G--------------------------------------------------|
D---7-7-7-7-7--7-7-7-8-8-8--7-7-7-7-7--8-7-6-8-7-6-|
A---5-5-5-5-5--5-5-5-6-6-6--5-5-5-5-5--6-5-4-6-5-4-|
E--------------------------------------------------|

Repeat a couple times, then go back to the beggining.

I learned all of this by ear and I think it sounds correct.

Thanks for checking out my tab!

E-mail me if you have any questions!

(jaidonskater@rocketmail.com)
Tap to rate this tab
 
# A B C D E F G H I J K L M N O P Q R S T U V W X Y Z