Song name
# A B C D E F G H I J K L M N O P Q R S T U V W X Y Z

Faction - Skate And Destroy tab

Help us improve GuitareTab! Take a short survey!
This is the classic skate-punk song. Here are the songs two main riffs. 
You can figure out the order and what not when you're playing along. 
There's also a little solo in the middle that basically follows the same 
line as the verse riff, only two octaves higher. I'd could tab it out,. 
but you'll be so stoked on yourself if YOU figure it out. 

Intro Riff 
e|--------------------------------------------------------------------| 
B|--------------------------------------------------------------------| 
G|--------------------------------------------------------------------| 
D|-44444444-2222-5----------------------------------------------------| 
A|-22222222-0000-3-5-4------------------------------------------------| 
E|-------------------3-2----------------------------------------------| 

Verse Riff 
e|----------------------------------------------------------------| 
B|----------------------------------------------------------------| 
G|------4---4---------------------4---4---------------------------| 
D|-22-2-2-4-2-55-55555-----22-2-2-4-2-55-55555--------------------| 
A|-00-0---2---33-33333-----00-0---2---33-33333--------------------| 
E|----------------------------------------------------------------| 

e|----------------------------------------------------------------| 
B|----------------------------------------------------------------| 
G|------4---4---------------------4---4---------------------------| 
D|-22-2-2-4-2-55-55555-----22-2-2-4-2-55-55555--------------------| 
A|-00-0---2---33-33333-----00-0---2---33-33333--------------------| 
E|----------------------------------------------------------------| 
Related for Skate And Destroy tab