Song name
# A B C D E F G H I J K L M N O P Q R S T U V W X Y Z

Faction - Skate And Destroy tab

hi Folks, this is my cover from the faction _ skate and destroy! if you need more 
help you can watch my tab here :

http://www.youtube.com/watch?v=TS_S8g2HiOA

more informations : machine_sk8@hotmail.fr

don't forget to rate me please!

enjoy !

*=palm mute
/= slide
~= bend

Intro :

e|-------------------------------------|
b|-------------------------------------|
g|-----------------------5-------------|
d|9-9-9-9-9-9-9-*6*6*6*6-5-5-4---------|
a|9-9-9-9-9-9-9-*6*6*6*6-3-5-4---------|
e|7-7-7-7-7-7-7-*4*4*4*4---3-2---------|

Verses:

e|-------------------------------------|
b|-------------------------------------|
g|-------9---10------------------------|
d|7-7-7--9-9-10-10-10-10-10-10-10------| repeat x4
a|7-7-7--7-9-8--10-10-10-10-10-10------|
e|5-5-5----7----8--8--8--8--8--8-------|

Break...

e|-------------------------------------|
b|-------------------------------------|
g|-------9---10------------------------|
d|7-7-7--9-9-10-10-10-10-10-10-10------| repeat x3
a|7-7-7--7-9-8--10-10-10-10-10-10------|
e|5-5-5----7----8--8--8--8--8--8-------|

e|-------------------------------------|
b|-------------------------------------|
g|-------9---10------------------------|
d|7-7-7--9-9-10------------------------| repeat x3
a|7-7-7--7-9-8-------------------------|
e|5-5-5----7---------------------------|

Bridge:

e|-------------------------------------|
b|-------------------------------------|
g|-----------------------5-------------|
d|9-9-9-9-9-9-9-*6*6*6*6-5-5-4---------|
a|9-9-9-9-9-9-9-*6*6*6*6-3-5-4---------|
e|7-7-7-7-7-7-7-*4*4*4*4---3-2---------|

Break...

e|-------------------------------------|
b|-------------------------------------|
g|-------------------------------------|
d|77777777777/16-----------------------|
a|-------------------------------------|
e|-------------------------------------|

e|-------------------------------------|
b|5-5-6--6-----------------------------|
g|-----5---5~/11/5/8-------------------| repeat x3
d|-------------------------------------|
a|-------------------------------------|
e|-------------------------------------|

e|-------------------------------------|
b|5-5-6--6-----------------------------|
g|-----5--4~-2~------------------------|
d|-------------------------------------|
a|-------------------------------------|
e|-------------------------------------|

Bridge:

e|-------------------------------------|
b|-------------------------------------|
g|-----------------------5-------------|
d|9-9-9-9-9-9-9-*6*6*6*6-5-5-4---------| 
a|9-9-9-9-9-9-9-*6*6*6*6-3-5-4---------|
e|7-7-7-7-7-7-7-*4*4*4*4---3-2---------|

Break...

e|-------------------------------------|
b|-------------------------------------|
g|-----------------------5-------------|
d|9-9-9-9-9-9-9-*6*6*6*6-5-5-4---------| 
a|9-9-9-9-9-9-9-*6*6*6*6-3-5-4---------|
e|7-7-7-7-7-7-7-*4*4*4*4---3-2---------|

e|7-7-7-7-7-7-7-5-5-5-8-4-2------------|
b|7-7-7-7-7-7-7-5-5-5-8-4-2------------|
g|7-7-7-7-7-7-7-5-5-5-8-4-2------------| repeat x3
d|-------------------------------------|
a|-------------------------------------|
e|-------------------------------------|

Bridge:

e|-------------------------------------|
b|-------------------------------------|
g|-----------------------5-------------|
d|9-9-9-9-9-9-9-*6*6*6*6-5-5-4---------|
a|9-9-9-9-9-9-9-*6*6*6*6-3-5-4---------|
e|7-7-7-7-7-7-7-*4*4*4*4---3-2---------|

Break...

e|12-------------------------------------|
b|--12-----------------------------------|
g|----12---------------------------------|
d|------12-------------------------------|
a|---------------------------------------|
e|---------------------------------------|

End :

e|-------------------------------------|
b|-------------------------------------|
g|-------9---10------------------------|
d|7-7-7--9-9-10-10-10-10-10-10-10------| repeat x3
a|7-7-7--7-9-8--10-10-10-10-10-10------|
e|5-5-5----7----8--8--8--8--8--8-------|

e|-------------------------------------|
b|-------------------------------------|
g|-------9-----------------------------|
d|7-7-7--9-9---------------------------| 
a|7-7-7--7-9---------------------------|
e|5-5-5----7---------------------------|

http://www.youtube.com/watch?v=L7EkuGCfkYI
Tap to rate this tab
 
# A B C D E F G H I J K L M N O P Q R S T U V W X Y Z