Song name
# A B C D E F G H I J K L M N O P Q R S T U V W X Y Z

Fags - Truly Truly tab

Help us improve GuitareTab! Take a short survey!
This is really a great song, on a mediocre move (The Last Ride, featuring
the all-new Pontiac GTO) and by a great band with an off-center name.

Enjoy.

Intro
e|-4-2-7-4-2-0-4-2-7-4-2-0-|
B|-------------------------|
G|-------------------------|
D|-------------------------|
A|-------------------------|
E|-------------------------| repeat once

Intro part 2/rhythm
e|---------------------------|
B|---------------------------|
G|-9-9--7-7------------------|
D|-9-9--7-7--7-7-7-7-7-7-7-7-|
A|-7-7--5-5--7-7-7-7-7-7-7-7-|
E|-----------5-5-5-5-5-5-5-5-|

Intro part 2/other part
e|---------------4-0--4-0----|
B|---------------------------|
G|---------------------------|
D|---------------------------|
A|---------------------------|
E|---------------------------|

Verse - repeat - first time pam muted, second time clean
e|---------------------------|
B|---------------------------|
G|--9-9-9-7-7-7--------------|
D|--9-9-9-7-7-7-7-7-7-7-7-7--|
A|--7-7-7-5-5-5-7-7-7-7-7-7--|
E|--------------5-5-5-5-5-5--|x3

e|---------------------------|
B|---------------------------|
G|---------------------------|
D|--5-5-5-7-7-7-2-2-2-2-2-2--|
A|--5-5-5-7-7-7-2-2-2-2-2-2--|
E|--3-3-3-5-5-5-0-0-0-0-0-0--|
Related for Truly Truly tab