Guitaretab - guitar tabs
Song name
# A B C D E F G H I J K L M N O P Q R S T U V W X Y Z

Fahnenflucht - Keine Frage tab

Fahnenflucht - Keine Frage


Tuned: Standard


Intro
00:00 - 00:19
|----------4-7---------4-7---------4-7-9-7-5-4---| 2x
|--5-----7-----5-----7-----5-----7-------------7-|
|------------------------------------------------|
|------------------------------------------------|
|------------------------------------------------|
|------------------------------------------------|

00:20 - 00:26
|-------------------------| 6x
|-540-540-54--------------|
|-------------------------|
|-------------------------|
|-------------------------|
|-------------------------|

00:26 - 00:28
|-------------------------|
|-540-540-545~------------|
|-------------------------|
|-------------------------|
|-------------------------|
|-------------------------|


Verse
00:29 - 00:55
|-------------------------| 7x
|-------------------------|
|-------------------------|
|-7--6--9--2--------------|
|-7--6--9--2--------------|
|-5--4--7--0--------------|
[ Tab from: http://www.guitaretab.com/f/fahnenflucht/83158.html ]
00:55 - 01:20
|-------------------------| 2x
|-------------------------|
|-------------------------|
|-2--9--11-7--------------|
|-2--9--11-7--------------|
|-0--7--9--5--------------|

Chours
01:20 - 01:34
|----------4-7---------4-7---------4-7-9-7-5-4---| 2x
|--5-----7-----5-----7-----5-----7-------------7-|
|------------------------------------------------|
|------------------------------------------------|
|------------------------------------------------|
|------------------------------------------------|

Verse
01:34 - 02:18
|-------------------------| 6x
|-------------------------|
|-------------------------|
|-2--9--11-7--------------|
|-2--9--11-7--------------|
|-0--7--9--5--------------|

Chours
02:18 - 01:34
|----------4-7---------4-7---------4-7-9-7-5-4---|
|--5-----7-----5-----7-----5-----7-------------7-|
|------------------------------------------------|
|------------------------------------------------|
|------------------------------------------------|
|------------------------------------------------|

Outro
02:28 - 03:20
|-------------------------| 6x
|-------------------------|
|-------------------------|
|-2--9--11-7--------------|
|-2--9--11-7--------------|
|-0--7--9--5--------------|

(c) xbinaryx
Related for Keine Frage tab
Advertisement will be closed in 10 seconds