Song name
# A B C D E F G H I J K L M N O P Q R S T U V W X Y Z

Fahrenheit 514 - Zombie Moshers tab

-----------------------------------------------------------------------------
			     ZOMBIE MOSHERS - Fahrenheit 514
-----------------------------------------------------------------------------
Tabbed by: Kaler

Tuning:

e|---------------------------------------------------------------------------|
B|---------------------------------------------------------------------------|
G|---------------------------------------------------------------------------|
D|--------------------222-22-------------------------------------------------|
A|--------------------202-22-------------------------------------------------|
E|--7-7--8-8--7-7-8-8-000-00-------------------------------------------------|

*This is repeated a random number of times, fahrenheit usually play it five times, then
down the last 4 power chords and let the last one sustain until the drummer plays a
Also, this whole part is palm muted.

e|---------------------------------------------------------------------------|
B|---------------------------------------------------------------------------|
G|---------------------------------------------------------------------------|
D|---------------------------------------------------------------------------|
A|----99--1010------99-1010---99---1010----7777------------------------------|
E|----77--8-8-------77-8-8----77---8-8-----7777------------------------------|

zombiezombiezombiezombiezombieAAAAHHHHH!!

*The barre chord on seven can be substituted for a low E string power chord, but it's
easier to get into the barre chord and it sounds exactly the same.

e|---------------------------------------------------------------------------|
B|---------------------------------------------------------------------------|
G|---------------------------------------------------------------------------|
D|------555-------------------55---------------------------------------------|
A|------333--555---77--99-----33--55--7/9------------------------------------|
E|-----------333---55--77---------33--5/7------------------------------------|

zombies are comin' to my house, they're goin' to get me!! I tried i tried i tried i
did try, when i said we're gonna make it, I LIED!

This is the bit that is played when the solo singer is singing. It follows right along
the lyrics for the most part. After this and the above bit are played twice, the bass
plays the intro as a solo, and then one more verse/chorus is played and the song ends. 
you for looking at this tab, and be sure to add these guys on MySpace because they're
quite possibly THE biggest horror punk band to come out of western kentucky.

http://www.myspace.com/fahrenheit514


| /  slide up
| \  slide down
| h  hammer-on
| p  pull-off
| ~  vibrato
| +  harmonic
| x  Mute note
=============================================================================
Tap to rate this tab
 
# A B C D E F G H I J K L M N O P Q R S T U V W X Y Z